  0
SECTION
  2
HEADER
  9
$ACADVER
  1
AC1009
  9
$INSBASE
 10
0
 20
0
 30
0
  9
$EXTMIN
 10
0
 20
0
  9
$EXTMAX
 10
84.1
 20
59.4
  9
$LIMMIN
 10
0
 20
0
  9
$LIMMAX
 10
84.1
 20
59.4
  9
$LTSCALE
 40
0.1
  0
ENDSEC
  0
SECTION
  2
TABLES
  0
TABLE
  2
LTYPE
 70
     9
  0
LTYPE
  2
CONTINUOUS
 70
    64
  3
実線
 72
    65
 73
     0
 40
0.0
  0
LTYPE
  2
DASHED1
 70
    64
  3
--  --  --  --  --  --  --  --  
 72
    65
 73
     2
 40
2.5
 49
1.25
 49
-1.25
  0
LTYPE
  2
DASHED2
 70
    64
  3
----    ----    ----    ----    
 72
    65
 73
     2
 40
5.0
 49
2.5
 49
-2.5
  0
LTYPE
  2
DASHED3
 70
    64
  3
------  ------  ------  ------  
 72
    65
 73
     2
 40
5.0
 49
3.75
 49
-1.25
  0
LTYPE
  2
CENTER1
 70
    64
  3
----- - ----- - ----- - ----- - 
 72
    65
 73
     4
 40
10.0
 49
6.25
 49
-1.25
 49
1.25
 49
-1.25
  0
LTYPE
  2
CENTER2
 70
    64
  3
----------  --  ----------  --  
 72
    65
 73
     4
 40
20.0
 49
12.5
 49
-2.5
 49
2.5
 49
-2.5
  0
LTYPE
  2
PHANTOM1
 70
    64
  3
--- - - --- - - --- - - --- - - 
 72
    65
 73
     6
 40
10.0
 49
3.25
 49
-1.25
 49
1.25
 49
-1.25
 49
1.25
 49
-1.25
  0
LTYPE
  2
PHANTOM2
 70
    64
  3
--------  -  -  --------  -  -  
 72
    65
 73
     6
 40
20.0
 49
10.0
 49
-2.5
 49
1.25
 49
-2.5
 49
1.25
 49
-2.5
  0
LTYPE
  2
DOT
 70
    64
  3
-   -   -   -   -   -   -   -   
 72
    65
 73
     2
 40
2.5
 49
0.625
 49
-1.875
  0
LTYPE
  2
DUMMY
 70
    64
  3
ダミー
 72
    65
 73
     0
 40
0.0
  0
LTYPE
  2
RAND1
 70
    64
  3
----- - ----- - ----- - ----- - 
 72
    65
 73
     4
 40
10.0
 49
6.25
 49
-1.25
 49
1.25
 49
-1.25
  0
LTYPE
  2
RAND2
 70
    64
  3
----------  --  ----------  --  
 72
    65
 73
     4
 40
20.0
 49
12.5
 49
-2.5
 49
2.5
 49
-2.5
  0
LTYPE
  2
RAND3
 70
    64
  3
--- - - --- - - --- - - --- - - 
 72
    65
 73
     6
 40
10.0
 49
3.25
 49
-1.25
 49
1.25
 49
-1.25
 49
1.25
 49
-1.25
  0
LTYPE
  2
RAND4
 70
    64
  3
--------  -  -  --------  -  -  
 72
    65
 73
     6
 40
20.0
 49
10.0
 49
-2.5
 49
1.25
 49
-2.5
 49
1.25
 49
-2.5
  0
LTYPE
  2
RAND5
 70
    64
  3
----- - ----- - ----- - ----- - 
 72
    65
 73
     4
 40
10.0
 49
6.25
 49
-1.25
 49
1.25
 49
-1.25
  0
LTYPE
  2
LONG1
 70
    64
  3
----------  --  ----------  --  
 72
    65
 73
     4
 40
20.0
 49
12.5
 49
-2.5
 49
2.5
 49
-2.5
  0
LTYPE
  2
LONG2
 70
    64
  3
--- - - --- - - --- - - --- - - 
 72
    65
 73
     6
 40
10.0
 49
3.25
 49
-1.25
 49
1.25
 49
-1.25
 49
1.25
 49
-1.25
  0
LTYPE
  2
LONG3
 70
    64
  3
--------  -  -  --------  -  -  
 72
    65
 73
     6
 40
20.0
 49
10.0
 49
-2.5
 49
1.25
 49
-2.5
 49
1.25
 49
-2.5
  0
LTYPE
  2
LONG4
 70
    64
  3
----- - ----- - ----- - ----- - 
 72
    65
 73
     4
 40
10.0
 49
6.25
 49
-1.25
 49
1.25
 49
-1.25
  0
LTYPE
  2
LONG5
 70
    64
  3
----------  --  ----------  --  
 72
    65
 73
     4
 40
20.0
 49
12.5
 49
-2.5
 49
2.5
 49
-2.5
  0
ENDTAB
  0
TABLE
  2
STYLE
  5
3
100
AcDbSymbolTable
 70
     1
  0
STYLE
  5
10
100
AcDbSymbolTableRecord
100
AcDbTextStyleTableRecord
  2
STANDARD
 70
     0
 40
0.0
 41
1.0
 50
0.0
 71
     0
 42
0.2
  3
txt
  4
bigfont.shx
  0
ENDTAB
  0
TABLE
  2
LAYER
 70
    2
  0
LAYER
  2
_0-0_1
 70
   64
 62
    7
  6
CONTINUOUS
  0
LAYER
  2
ADD_LINE
 70
   64
 62
    7
  6
CONTINUOUS
  0
ENDTAB
  0
ENDSEC
  0
SECTION
  2
BLOCKS
  0
ENDSEC
  0
SECTION
  2
ENTITIES
  0
LINE
  8
_0-0_1
  6
CONTINUOUS
 62
    7
 10
65.837825
 20
33.384965
 11
63.187825
 21
32.674965
  0
LINE
  8
_0-0_1
  6
CONTINUOUS
 62
    7
 10
64.794325
 20
35.862965
 11
63.882325
 21
36.022965
  0
LINE
  8
_0-0_1
  6
CONTINUOUS
 62
    7
 10
57.478325
 20
37.508965
 11
57.478325
 21
34.639965
  0
LINE
  8
_0-0_1
  6
CONTINUOUS
 62
    7
 10
56.207325
 20
38.139465
 11
56.206325
 21
33.908965
  0
LINE
  8
_0-0_1
  6
CONTINUOUS
 62
    7
 10
57.478325
 20
38.439465
 11
57.478325
 21
38.025965
  0
LINE
  8
_0-0_1
  6
CONTINUOUS
 62
    7
 10
56.206325
 20
33.908965
 11
63.187825
 21
32.676465
  0
LINE
  8
_0-0_1
  6
CONTINUOUS
 62
    7
 10
58.178325
 20
38.670465
 11
58.178325
 21
34.911465
  0
LINE
  8
_0-0_1
  6
CONTINUOUS
 62
    7
 10
57.478325
 20
34.639965
 11
58.178325
 21
34.911465
  0
LINE
  8
_0-0_1
  6
CONTINUOUS
 62
    7
 10
58.178325
 20
38.670465
 11
57.478325
 21
38.439465
  0
LINE
  8
_0-0_1
  6
CONTINUOUS
 62
    7
 10
65.837825
 20
33.384965
 11
58.278325
 21
34.711965
  0
LINE
  8
_0-0_1
  6
CONTINUOUS
 62
    7
 10
56.206325
 20
33.908965
 11
58.278325
 21
34.711965
  0
LINE
  8
_0-0_1
  6
CONTINUOUS
 62
    7
 10
58.178325
 20
43.235465
 11
57.478325
 21
43.047965
  0
LINE
  8
_0-0_1
  6
CONTINUOUS
 62
    7
 10
58.278325
 20
43.499965
 11
56.208325
 21
42.944965
  0
LINE
  8
_0-0_1
  6
CONTINUOUS
 62
    7
 10
56.207825
 20
40.752965
 11
56.207325
 21
38.932465
  0
LINE
  8
_0-0_1
  6
CONTINUOUS
 62
    7
 10
56.207325
 20
39.090465
 11
56.088825
 21
39.121965
  0
LINE
  8
_0-0_1
  6
CONTINUOUS
 62
    7
 10
57.478325
 20
40.409965
 11
57.478325
 21
39.248965
  0
LINE
  8
_0-0_1
  6
CONTINUOUS
 62
    7
 10
57.478325
 20
43.047965
 11
57.478325
 21
41.072465
  0
LINE
  8
_0-0_1
  6
CONTINUOUS
 62
    7
 10
56.208325
 20
42.944965
 11
56.207825
 21
41.415965
  0
LINE
  8
_0-0_1
  6
CONTINUOUS
 62
    7
 10
63.882325
 20
40.165965
 11
64.794325
 21
39.923465
  0
LINE
  8
_0-0_1
  6
CONTINUOUS
 62
    7
 10
65.941325
 20
41.283965
 11
65.941325
 21
31.930965
  0
LINE
  8
_0-0_1
  6
CONTINUOUS
 62
    7
 10
65.837825
 20
41.491965
 11
65.837825
 21
33.384965
  0
LINE
  8
_0-0_1
  6
CONTINUOUS
 62
    7
 10
63.882325
 20
40.165965
 11
63.882325
 21
36.022965
  0
LINE
  8
_0-0_1
  6
CONTINUOUS
 62
    7
 10
64.794325
 20
39.923465
 11
64.794325
 21
35.862965
  0
LINE
  8
_0-0_1
  6
CONTINUOUS
 62
    7
 10
65.098325
 20
41.683965
 11
65.098325
 21
33.530965
  0
LINE
  8
_0-0_1
  6
CONTINUOUS
 62
    7
 10
58.178325
 20
39.479965
 11
57.478325
 21
39.248965
  0
LINE
  8
_0-0_1
  6
CONTINUOUS
 62
    7
 10
60.550825
 20
42.894965
 11
60.550825
 21
34.305465
  0
LINE
  8
_0-0_1
  6
CONTINUOUS
 62
    7
 10
58.278325
 20
43.499965
 11
65.836825
 21
41.487465
  0
LINE
  8
_0-0_1
  6
CONTINUOUS
 62
    7
 10
58.178325
 20
43.235465
 11
58.178325
 21
39.479965
  0
LINE
  8
_0-0_1
  6
CONTINUOUS
 62
    7
 10
58.278325
 20
43.499965
 11
58.278325
 21
34.711965
  0
LINE
  8
_0-0_1
  6
CONTINUOUS
 62
    7
 10
65.837325
 20
41.311965
 11
65.941325
 21
41.283965
  0
LINE
  8
_0-0_1
  6
CONTINUOUS
 62
    7
 10
54.992825
 20
44.199465
 11
54.992825
 21
39.798465
  0
LINE
  8
_0-0_1
  6
CONTINUOUS
 62
    7
 10
42.688325
 20
47.475965
 11
57.950325
 21
43.411965
  0
LINE
  8
_0-0_1
  6
CONTINUOUS
 62
    7
 10
65.837325
 20
41.311965
 11
65.941325
 21
41.283965
  0
LINE
  8
_0-0_1
  6
CONTINUOUS
 62
    7
 10
66.434825
 20
42.234965
 11
64.736825
 21
41.779965
  0
LINE
  8
_0-0_1
  6
CONTINUOUS
 62
    7
 10
59.850825
 20
30.460465
 11
50.373825
 21
32.131965
  0
LINE
  8
_0-0_1
  6
CONTINUOUS
 62
    7
 10
41.008925
 20
34.238965
 11
40.865075
 21
30.818965
  0
LINE
  8
_0-0_1
  6
CONTINUOUS
 62
    7
 10
44.966825
 20
31.616965
 11
44.330325
 21
30.503965
  0
LINE
  8
_0-0_1
  6
CONTINUOUS
 62
    7
 10
60.007325
 20
30.340965
 11
50.373825
 21
32.037465
  0
LINE
  8
_0-0_1
  6
CONTINUOUS
 62
    7
 10
50.373825
 20
29.268465
 11
50.373825
 21
33.598465
  0
LINE
  8
_0-0_1
  6
CONTINUOUS
 62
    7
 10
22.798775
 20
33.598465
 11
22.798775
 21
29.268465
  0
LINE
  8
_0-0_1
  6
CONTINUOUS
 62
    7
 10
65.399325
 20
31.947465
 11
65.941325
 21
31.930965
  0
LINE
  8
_0-0_1
  6
CONTINUOUS
 62
    7
 10
65.399325
 20
31.947465
 11
49.783325
 21
34.700965
  0
LINE
  8
_0-0_1
  6
CONTINUOUS
 62
    7
 10
65.399325
 20
31.947465
 11
59.850825
 21
30.460465
  0
LINE
  8
_0-0_1
  6
CONTINUOUS
 62
    7
 10
59.850825
 20
30.460465
 11
60.007325
 21
30.340965
  0
LINE
  8
_0-0_1
  6
CONTINUOUS
 62
    7
 10
57.515825
 20
44.616465
 11
66.434825
 21
42.234965
  0
LINE
  8
_0-0_1
  6
CONTINUOUS
 62
    7
 10
57.515825
 20
44.616465
 11
55.477325
 21
44.070465
  0
LINE
  8
_0-0_1
  6
CONTINUOUS
 62
    7
 10
23.404875
 20
36.369965
 11
22.042325
 21
37.898965
  0
LINE
  8
_0-0_1
  6
CONTINUOUS
 62
    7
 10
17.856075
 20
39.003465
 11
22.798775
 21
33.344465
  0
LINE
  8
_0-0_1
  6
CONTINUOUS
 62
    7
 10
17.804225
 20
39.036465
 11
22.042325
 21
37.898965
  0
LINE
  8
_0-0_1
  6
CONTINUOUS
 62
    7
 10
17.665175
 20
38.931465
 11
17.667825
 21
38.130965
  0
LINE
  8
_0-0_1
  6
CONTINUOUS
 62
    7
 10
19.845519
 20
36.725709
 11
18.474959
 21
37.083286
  0
LINE
  8
_0-0_1
  6
CONTINUOUS
 62
    7
 10
53.619325
 20
36.908965
 11
49.043825
 21
34.287465
  0
LINE
  8
_0-0_1
  6
CONTINUOUS
 62
    7
 10
53.014825
 20
37.070965
 11
54.337825
 21
36.716465
  0
LINE
  8
_0-0_1
  6
CONTINUOUS
 62
    7
 10
55.631325
 20
38.117465
 11
52.237825
 21
39.026465
  0
LINE
  8
_0-0_1
  6
CONTINUOUS
 62
    7
 10
55.710325
 20
37.792965
 11
55.711325
 21
38.011965
  0
LINE
  8
_0-0_1
  6
CONTINUOUS
 62
    7
 10
52.207825
 20
38.125965
 11
52.210325
 21
38.920965
  0
LINE
  8
_0-0_1
  6
CONTINUOUS
 62
    7
 10
52.156325
 20
39.015465
 11
45.656325
 21
35.291465
  0
LINE
  8
_0-0_1
  6
CONTINUOUS
 62
    7
 10
65.941325
 20
31.930965
 11
60.007325
 21
30.340965
  0
LINE
  8
_0-0_1
  6
CONTINUOUS
 62
    7
 10
65.941325
 20
31.930965
 11
49.961325
 21
34.748465
  0
LINE
  8
_0-0_1
  6
CONTINUOUS
 62
    7
 10
50.373825
 20
33.598465
 11
49.961325
 21
34.748465
  0
ARC
  8
_0-0_1
  6
CONTINUOUS
 62
    7
 10
54.702825
 20
39.335465
 40
1.214275
 50
15.275
 51
76.1951
  0
ARC
  8
_0-0_1
  6
CONTINUOUS
 62
    7
 10
54.748825
 20
39.443965
 40
0.53507
 50
9.30573
 51
62.8856
  0
ARC
  8
_0-0_1
  6
CONTINUOUS
 62
    7
 10
55.492825
 20
39.798465
 40
0.5
 50
180
 51
253.343
  0
ARC
  8
_0-0_1
  6
CONTINUOUS
 62
    7
 10
58.138825
 20
40.437965
 40
3.0024
 50
197.597
 51
270.759
  0
ARC
  8
_0-0_1
  6
CONTINUOUS
 62
    7
 10
58.101325
 20
40.243465
 40
2.303445
 50
194.793
 51
271.919
  0
ARC
  8
_0-0_1
  6
CONTINUOUS
 62
    7
 10
58.440825
 20
47.160965
 40
6.16405
 50
235.982
 51
267.551
  0
ARC
  8
_0-0_1
  6
CONTINUOUS
 62
    7
 10
58.440825
 20
46.498465
 40
6.16405
 50
235.982
 51
267.551
  0
ARC
  8
_0-0_1
  6
CONTINUOUS
 62
    7
 10
45.083825
 20
31.308465
 40
7.01225
 50
288.629
 51
315.218
  0
ARC
  8
_0-0_1
  6
CONTINUOUS
 62
    7
 10
42.225825
 20
38.449465
 40
13.68055
 50
281.762
 51
301.743
  0
ARC
  8
_0-0_1
  6
CONTINUOUS
 62
    7
 10
40.889075
 20
43.864965
 40
18.20675
 50
281.239
 51
294.354
  0
ARC
  8
_0-0_1
  6
CONTINUOUS
 62
    7
 10
38.028575
 20
58.993465
 40
31.4876
 50
275.974
 51
282.456
  0
ARC
  8
_0-0_1
  6
CONTINUOUS
 62
    7
 10
33.753875
 20
50.228465
 40
23.6622
 50
251.556
 51
261.686
  0
ARC
  8
_0-0_1
  6
CONTINUOUS
 62
    7
 10
32.388975
 20
43.864965
 40
18.20675
 50
245.504
 51
258.761
  0
ARC
  8
_0-0_1
  6
CONTINUOUS
 62
    7
 10
31.052425
 20
38.449465
 40
13.68055
 50
238.164
 51
258.238
  0
ARC
  8
_0-0_1
  6
CONTINUOUS
 62
    7
 10
28.194125
 20
31.308465
 40
7.01225
 50
224.457
 51
251.371
  0
ARC
  8
_0-0_1
  6
CONTINUOUS
 62
    7
 10
39.524175
 20
50.228465
 40
23.6622
 50
278.314
 51
288.242
  0
ARC
  8
_0-0_1
  6
CONTINUOUS
 62
    7
 10
39.474575
 20
46.899465
 40
23.5808
 50
277.217
 51
289.443
  0
ARC
  8
_0-0_1
  6
CONTINUOUS
 62
    7
 10
33.803475
 20
46.899465
 40
23.5808
 50
250.557
 51
262.783
  0
ARC
  8
_0-0_1
  6
CONTINUOUS
 62
    7
 10
35.249475
 20
58.993465
 40
31.4876
 50
257.15
 51
264.026
  0
ARC
  8
_0-0_1
  6
CONTINUOUS
 62
    7
 10
36.639025
 20
71.718965
 40
44.28865
 50
263.951
 51
276.049
  0
ARC
  8
_0-0_1
  6
CONTINUOUS
 62
    7
 10
36.639025
 20
69.576465
 40
43.22405
 50
261.61
 51
278.39
  0
ARC
  8
_0-0_1
  6
CONTINUOUS
 62
    7
 10
36.639025
 20
66.714965
 40
43.5965
 50
262.357
 51
277.643
  0
ARC
  8
_0-0_1
  6
CONTINUOUS
 62
    7
 10
36.639025
 20
67.111965
 40
41.83765
 50
259.257
 51
280.743
  0
ARC
  8
_0-0_1
  6
CONTINUOUS
 62
    7
 10
36.639025
 20
65.401965
 40
41.2057
 50
258.273
 51
281.727
  0
ARC
  8
_0-0_1
  6
CONTINUOUS
 62
    7
 10
36.586225
 20
-26.283334
 40
55.2135
 50
82.7927
 51
97.2073
  0
ARC
  8
_0-0_1
  6
CONTINUOUS
 62
    7
 10
41.049175
 20
7.0039655
 40
21.6306
 50
69.8132
 51
83.4588
  0
ARC
  8
_0-0_1
  6
CONTINUOUS
 62
    7
 10
46.899325
 20
22.541965
 40
5.0302
 50
46.8186
 51
71.2824
  0
ARC
  8
_0-0_1
  6
CONTINUOUS
 62
    7
 10
49.729325
 20
25.535965
 40
0.910225
 50
313.339
 51
47.7526
  0
ARC
  8
_0-0_1
  6
CONTINUOUS
 62
    7
 10
47.177325
 20
28.095465
 40
4.5246
 50
288.583
 51
314.601
  0
ARC
  8
_0-0_1
  6
CONTINUOUS
 62
    7
 10
40.718675
 20
45.446465
 40
23.03675
 50
276.874
 51
290.057
  0
ARC
  8
_0-0_1
  6
CONTINUOUS
 62
    7
 10
36.586225
 20
78.159465
 40
56.0095
 50
262.934
 51
277.066
  0
ARC
  8
_0-0_1
  6
CONTINUOUS
 62
    7
 10
32.453825
 20
45.446465
 40
23.03675
 50
249.943
 51
263.126
  0
ARC
  8
_0-0_1
  6
CONTINUOUS
 62
    7
 10
25.995225
 20
28.095465
 40
4.5246
 50
225.399
 51
251.417
  0
ARC
  8
_0-0_1
  6
CONTINUOUS
 62
    7
 10
23.442925
 20
25.535965
 40
0.910225
 50
132.247
 51
226.661
  0
ARC
  8
_0-0_1
  6
CONTINUOUS
 62
    7
 10
26.273175
 20
22.541965
 40
5.0302
 50
108.718
 51
133.181
  0
ARC
  8
_0-0_1
  6
CONTINUOUS
 62
    7
 10
32.123275
 20
7.0039655
 40
21.6306
 50
96.5412
 51
110.187
  0
ARC
  8
_0-0_1
  6
CONTINUOUS
 62
    7
 10
46.319825
 20
29.777465
 40
5.5535
 50
96.8653
 51
169.19
  0
ARC
  8
_0-0_1
  6
CONTINUOUS
 62
    7
 10
49.672825
 20
28.878965
 40
5.4446
 50
96.6338
 51
149.812
  0
ARC
  8
_0-0_1
  6
CONTINUOUS
 62
    7
 10
36.586225
 20
-26.283334
 40
55.4135
 50
82.7939
 51
97.2061
  0
ARC
  8
_0-0_1
  6
CONTINUOUS
 62
    7
 10
36.586225
 20
-39.511834
 40
70.1805
 50
84.5381
 51
95.4619
  0
ARC
  8
_0-0_1
  6
CONTINUOUS
 62
    7
 10
36.586225
 20
-46.497373
 40
77.4415
 50
87.3626
 51
92.6374
  0
ARC
  8
_0-0_1
  6
CONTINUOUS
 62
    7
 10
38.077275
 20
-17.873334
 40
48.77965
 50
77.6071
 51
87.565
  0
ARC
  8
_0-0_1
  6
CONTINUOUS
 62
    7
 10
39.790175
 20
-7.4346844
 40
37.9441
 50
74.6665
 51
84.7437
  0
ARC
  8
_0-0_1
  6
CONTINUOUS
 62
    7
 10
45.056325
 20
13.459965
 40
16.679
 50
71.4095
 51
77.9228
  0
ARC
  8
_0-0_1
  6
CONTINUOUS
 62
    7
 10
45.056325
 20
13.459965
 40
16.679
 50
63.6749
 51
71.4095
  0
ARC
  8
_0-0_1
  6
CONTINUOUS
 62
    7
 10
46.985325
 20
18.216465
 40
11.3046
 50
56.6465
 51
75.4576
  0
ARC
  8
_0-0_1
  6
CONTINUOUS
 62
    7
 10
20.670375
 20
26.366465
 40
1.63601
 50
145.708
 51
183.154
  0
ARC
  8
_0-0_1
  6
CONTINUOUS
 62
    7
 10
52.502325
 20
26.366465
 40
1.63601
 50
327.67
 51
356.846
  0
ARC
  8
_0-0_1
  6
CONTINUOUS
 62
    7
 10
36.586225
 20
133.90196
 40
112.1015
 50
269.218
 51
270.782
  0
ARC
  8
_0-0_1
  6
CONTINUOUS
 62
    7
 10
36.586225
 20
78.159465
 40
56.2095
 50
262.935
 51
277.065
  0
ARC
  8
_0-0_1
  6
CONTINUOUS
 62
    7
 10
37.496475
 20
76.176465
 40
54.3695
 50
270.653
 51
280.505
  0
ARC
  8
_0-0_1
  6
CONTINUOUS
 62
    7
 10
40.718675
 20
45.446465
 40
23.23675
 50
276.875
 51
290.05
  0
ARC
  8
_0-0_1
  6
CONTINUOUS
 62
    7
 10
41.049175
 20
7.0039655
 40
21.8306
 50
69.8199
 51
83.4558
  0
ARC
  8
_0-0_1
  6
CONTINUOUS
 62
    7
 10
50.582825
 20
24.636465
 40
4.21052
 50
39.0276
 51
63.6307
  0
ARC
  8
_0-0_1
  6
CONTINUOUS
 62
    7
 10
52.046325
 20
25.870965
 40
2.128315
 50
10.9762
 51
57.1493
  0
ARC
  8
_0-0_1
  6
CONTINUOUS
 62
    7
 10
46.899325
 20
22.541965
 40
5.2302
 50
46.8357
 51
71.2541
  0
ARC
  8
_0-0_1
  6
CONTINUOUS
 62
    7
 10
47.177325
 20
28.095465
 40
4.7246
 50
288.614
 51
314.575
  0
ARC
  8
_0-0_1
  6
CONTINUOUS
 62
    7
 10
49.729325
 20
25.535965
 40
1.110225
 50
313.457
 51
47.6651
  0
ARC
  8
_0-0_1
  6
CONTINUOUS
 62
    7
 10
44.011325
 20
42.202465
 40
19.77805
 50
279.892
 51
294.885
  0
ARC
  8
_0-0_1
  6
CONTINUOUS
 62
    7
 10
50.729825
 20
27.874465
 40
3.9534
 50
293.931
 51
322.93
  0
ARC
  8
_0-0_1
  6
CONTINUOUS
 62
    7
 10
52.502325
 20
26.366465
 40
1.63601
 50
356.846
 51
34.292
  0
ARC
  8
_0-0_1
  6
CONTINUOUS
 62
    7
 10
35.675975
 20
76.176465
 40
54.3695
 50
259.495
 51
269.347
  0
ARC
  8
_0-0_1
  6
CONTINUOUS
 62
    7
 10
32.453825
 20
45.446465
 40
23.23675
 50
249.95
 51
263.125
  0
ARC
  8
_0-0_1
  6
CONTINUOUS
 62
    7
 10
32.123275
 20
7.0039655
 40
21.8306
 50
96.5442
 51
110.18
  0
ARC
  8
_0-0_1
  6
CONTINUOUS
 62
    7
 10
35.095175
 20
-17.873334
 40
48.77965
 50
92.435
 51
102.393
  0
ARC
  8
_0-0_1
  6
CONTINUOUS
 62
    7
 10
33.382275
 20
-7.4346844
 40
37.9441
 50
95.2563
 51
105.333
  0
ARC
  8
_0-0_1
  6
CONTINUOUS
 62
    7
 10
28.116075
 20
13.459965
 40
16.679
 50
102.077
 51
108.59
  0
ARC
  8
_0-0_1
  6
CONTINUOUS
 62
    7
 10
28.116075
 20
13.459965
 40
16.679
 50
108.59
 51
116.325
  0
ARC
  8
_0-0_1
  6
CONTINUOUS
 62
    7
 10
26.187025
 20
18.216465
 40
11.3046
 50
104.542
 51
123.353
  0
ARC
  8
_0-0_1
  6
CONTINUOUS
 62
    7
 10
22.589675
 20
24.636465
 40
4.21052
 50
116.369
 51
140.972
  0
ARC
  8
_0-0_1
  6
CONTINUOUS
 62
    7
 10
21.126225
 20
25.870965
 40
2.128315
 50
122.851
 51
169.024
  0
ARC
  8
_0-0_1
  6
CONTINUOUS
 62
    7
 10
26.273175
 20
22.541965
 40
5.2302
 50
108.746
 51
133.164
  0
ARC
  8
_0-0_1
  6
CONTINUOUS
 62
    7
 10
25.995225
 20
28.095465
 40
4.7246
 50
225.425
 51
251.386
  0
ARC
  8
_0-0_1
  6
CONTINUOUS
 62
    7
 10
23.442925
 20
25.535965
 40
1.110225
 50
132.335
 51
226.543
  0
ARC
  8
_0-0_1
  6
CONTINUOUS
 62
    7
 10
29.161225
 20
42.202465
 40
19.77805
 50
245.115
 51
260.108
  0
ARC
  8
_0-0_1
  6
CONTINUOUS
 62
    7
 10
22.442425
 20
27.874465
 40
3.9534
 50
217.07
 51
246.069
  0
ARC
  8
_0-0_1
  6
CONTINUOUS
 62
    7
 10
20.670375
 20
26.366465
 40
1.63601
 50
183.154
 51
212.33
  0
ARC
  8
_0-0_1
  6
CONTINUOUS
 62
    7
 10
18.756532
 20
38.134648
 40
1.0887331
 50
180.19766
 51
255.00966
  0
ARC
  8
_0-0_1
  6
CONTINUOUS
 62
    7
 10
17.774075
 20
38.931965
 40
0.1088925
 50
60.1882
 51
180.188
  0
ARC
  8
_0-0_1
  6
CONTINUOUS
 62
    7
 10
21.017375
 20
35.243465
 40
20.0168
 50
17.8363
 51
41.7478
  0
ARC
  8
_0-0_1
  6
CONTINUOUS
 62
    7
 10
21.468425
 20
35.223465
 40
22.0168
 50
17.8363
 51
36.8568
  0
ARC
  8
_0-0_1
  6
CONTINUOUS
 62
    7
 10
36.586225
 20
27.559465
 40
21.03
 50
83.1414
 51
91.7025
  0
ARC
  8
_0-0_1
  6
CONTINUOUS
 62
    7
 10
36.586225
 20
27.559465
 40
20.83
 50
91.2921
 51
112.913
  0
ARC
  8
_0-0_1
  6
CONTINUOUS
 62
    7
 10
36.586225
 20
27.559465
 40
20.83
 50
72.9652
 51
82.68
  0
ARC
  8
_0-0_1
  6
CONTINUOUS
 62
    7
 10
20.592225
 20
28.537465
 40
28.6147
 50
16.4753
 51
42.0645
  0
ARC
  8
_0-0_1
  6
CONTINUOUS
 62
    7
 10
21.468425
 20
35.223465
 40
22.0168
 50
358.49
 51
17.8363
  0
ARC
  8
_0-0_1
  6
CONTINUOUS
 62
    7
 10
36.136725
 20
-23.368134
 40
57.8125
 50
85.1656
 51
100.464
  0
ARC
  8
_0-0_1
  6
CONTINUOUS
 62
    7
 10
36.136725
 20
-23.368134
 40
57.8125
 50
76.9218
 51
79.4351
  0
ARC
  8
_0-0_1
  6
CONTINUOUS
 62
    7
 10
54.621325
 20
37.796465
 40
1.088925
 50
255
 51
359.812
  0
ARC
  8
_0-0_1
  6
CONTINUOUS
 62
    7
 10
53.296825
 20
38.122465
 40
1.088925
 50
179.812
 51
255
  0
ARC
  8
_0-0_1
  6
CONTINUOUS
 62
    7
 10
55.602325
 20
38.012465
 40
0.1088925
 50
359.812
 51
74.6689
  0
ARC
  8
_0-0_1
  6
CONTINUOUS
 62
    7
 10
21.017375
 20
35.243465
 40
20.0168
 50
357.124
 51
11.1845
  0
ARC
  8
_0-0_1
  6
CONTINUOUS
 62
    7
 10
21.017375
 20
35.243465
 40
20.0168
 50
11.1845
 51
17.8363
  0
ARC
  8
_0-0_1
  6
CONTINUOUS
 62
    7
 10
52.580325
 20
28.537465
 40
30.20845
 50
159.007
 51
169.471
  0
ARC
  8
_0-0_1
  6
CONTINUOUS
 62
    7
 10
52.580325
 20
28.537465
 40
30.20845
 50
169.471
 51
170.355
  0
ARC
  8
_0-0_1
  6
CONTINUOUS
 62
    7
 10
52.580325
 20
28.537465
 40
30.20845
 50
142.931
 51
159.007
  0
TEXT
  8
_0-0_1
 62
    7
 10
35.443554
 20
10.000781
 40
3
 41
0.9
 50
0
  1
YD1303
  0
ENDSEC
  0
EOF
