  0
SECTION
  2
HEADER
  9
$ACADVER
  1
AC1009
  9
$INSBASE
 10
0
 20
0
 30
0
  9
$EXTMIN
 10
0
 20
0
  9
$EXTMAX
 10
84.1
 20
59.4
  9
$LIMMIN
 10
0
 20
0
  9
$LIMMAX
 10
84.1
 20
59.4
  9
$LTSCALE
 40
0.1
  0
ENDSEC
  0
SECTION
  2
TABLES
  0
TABLE
  2
LTYPE
 70
     9
  0
LTYPE
  2
CONTINUOUS
 70
    64
  3
実線
 72
    65
 73
     0
 40
0.0
  0
LTYPE
  2
DASHED1
 70
    64
  3
--  --  --  --  --  --  --  --  
 72
    65
 73
     2
 40
2.5
 49
1.25
 49
-1.25
  0
LTYPE
  2
DASHED2
 70
    64
  3
----    ----    ----    ----    
 72
    65
 73
     2
 40
5.0
 49
2.5
 49
-2.5
  0
LTYPE
  2
DASHED3
 70
    64
  3
------  ------  ------  ------  
 72
    65
 73
     2
 40
5.0
 49
3.75
 49
-1.25
  0
LTYPE
  2
CENTER1
 70
    64
  3
----- - ----- - ----- - ----- - 
 72
    65
 73
     4
 40
10.0
 49
6.25
 49
-1.25
 49
1.25
 49
-1.25
  0
LTYPE
  2
CENTER2
 70
    64
  3
----------  --  ----------  --  
 72
    65
 73
     4
 40
20.0
 49
12.5
 49
-2.5
 49
2.5
 49
-2.5
  0
LTYPE
  2
PHANTOM1
 70
    64
  3
--- - - --- - - --- - - --- - - 
 72
    65
 73
     6
 40
10.0
 49
3.25
 49
-1.25
 49
1.25
 49
-1.25
 49
1.25
 49
-1.25
  0
LTYPE
  2
PHANTOM2
 70
    64
  3
--------  -  -  --------  -  -  
 72
    65
 73
     6
 40
20.0
 49
10.0
 49
-2.5
 49
1.25
 49
-2.5
 49
1.25
 49
-2.5
  0
LTYPE
  2
DOT
 70
    64
  3
-   -   -   -   -   -   -   -   
 72
    65
 73
     2
 40
2.5
 49
0.625
 49
-1.875
  0
LTYPE
  2
DUMMY
 70
    64
  3
ダミー
 72
    65
 73
     0
 40
0.0
  0
LTYPE
  2
RAND1
 70
    64
  3
----- - ----- - ----- - ----- - 
 72
    65
 73
     4
 40
10.0
 49
6.25
 49
-1.25
 49
1.25
 49
-1.25
  0
LTYPE
  2
RAND2
 70
    64
  3
----------  --  ----------  --  
 72
    65
 73
     4
 40
20.0
 49
12.5
 49
-2.5
 49
2.5
 49
-2.5
  0
LTYPE
  2
RAND3
 70
    64
  3
--- - - --- - - --- - - --- - - 
 72
    65
 73
     6
 40
10.0
 49
3.25
 49
-1.25
 49
1.25
 49
-1.25
 49
1.25
 49
-1.25
  0
LTYPE
  2
RAND4
 70
    64
  3
--------  -  -  --------  -  -  
 72
    65
 73
     6
 40
20.0
 49
10.0
 49
-2.5
 49
1.25
 49
-2.5
 49
1.25
 49
-2.5
  0
LTYPE
  2
RAND5
 70
    64
  3
----- - ----- - ----- - ----- - 
 72
    65
 73
     4
 40
10.0
 49
6.25
 49
-1.25
 49
1.25
 49
-1.25
  0
LTYPE
  2
LONG1
 70
    64
  3
----------  --  ----------  --  
 72
    65
 73
     4
 40
20.0
 49
12.5
 49
-2.5
 49
2.5
 49
-2.5
  0
LTYPE
  2
LONG2
 70
    64
  3
--- - - --- - - --- - - --- - - 
 72
    65
 73
     6
 40
10.0
 49
3.25
 49
-1.25
 49
1.25
 49
-1.25
 49
1.25
 49
-1.25
  0
LTYPE
  2
LONG3
 70
    64
  3
--------  -  -  --------  -  -  
 72
    65
 73
     6
 40
20.0
 49
10.0
 49
-2.5
 49
1.25
 49
-2.5
 49
1.25
 49
-2.5
  0
LTYPE
  2
LONG4
 70
    64
  3
----- - ----- - ----- - ----- - 
 72
    65
 73
     4
 40
10.0
 49
6.25
 49
-1.25
 49
1.25
 49
-1.25
  0
LTYPE
  2
LONG5
 70
    64
  3
----------  --  ----------  --  
 72
    65
 73
     4
 40
20.0
 49
12.5
 49
-2.5
 49
2.5
 49
-2.5
  0
ENDTAB
  0
TABLE
  2
STYLE
  5
3
100
AcDbSymbolTable
 70
     1
  0
STYLE
  5
10
100
AcDbSymbolTableRecord
100
AcDbTextStyleTableRecord
  2
STANDARD
 70
     0
 40
0.0
 41
1.0
 50
0.0
 71
     0
 42
0.2
  3
txt
  4
bigfont.shx
  0
ENDTAB
  0
TABLE
  2
LAYER
 70
    2
  0
LAYER
  2
_0-0_1
 70
   64
 62
    7
  6
CONTINUOUS
  0
LAYER
  2
ADD_LINE
 70
   64
 62
    7
  6
CONTINUOUS
  0
ENDTAB
  0
ENDSEC
  0
SECTION
  2
BLOCKS
  0
ENDSEC
  0
SECTION
  2
ENTITIES
  0
LINE
  8
_0-0_1
  6
CONTINUOUS
 62
    7
 10
59.661427
 20
27.830809
 11
59.661427
 21
24.569238
  0
LINE
  8
_0-0_1
  6
CONTINUOUS
 62
    7
 10
28.109152
 20
29.06166
 11
28.109152
 21
25.901478
  0
LINE
  8
_0-0_1
  6
CONTINUOUS
 62
    7
 10
25.504279
 20
31.454421
 11
25.504279
 21
47.915959
  0
LINE
  8
_0-0_1
  6
CONTINUOUS
 62
    7
 10
26.829443
 20
32.582889
 11
29.402056
 21
34.622452
  0
LINE
  8
_0-0_1
  6
CONTINUOUS
 62
    7
 10
26.595565
 20
32.133202
 11
26.546877
 21
32.342265
  0
LINE
  8
_0-0_1
  6
CONTINUOUS
 62
    7
 10
24.739912
 20
30.610987
 11
26.595565
 21
32.133202
  0
LINE
  8
_0-0_1
  6
CONTINUOUS
 62
    7
 10
24.870388
 20
29.697657
 11
24.739912
 21
30.610987
  0
LINE
  8
_0-0_1
  6
CONTINUOUS
 62
    7
 10
26.914506
 20
31.060402
 11
24.870388
 21
29.697657
  0
LINE
  8
_0-0_1
  6
CONTINUOUS
 62
    7
 10
26.829443
 20
32.582889
 11
26.914506
 21
31.060402
  0
LINE
  8
_0-0_1
  6
CONTINUOUS
 62
    7
 10
21.710895
 20
28.224095
 11
26.546877
 21
32.342265
  0
LINE
  8
_0-0_1
  6
CONTINUOUS
 62
    7
 10
23.453786
 20
26.861913
 11
29.53432
 21
29.735079
  0
LINE
  8
_0-0_1
  6
CONTINUOUS
 62
    7
 10
23.376343
 20
27.077389
 11
29.456877
 21
29.950555
  0
LINE
  8
_0-0_1
  6
CONTINUOUS
 62
    7
 10
28.109152
 20
42.070464
 11
28.109152
 21
33.59744
  0
LINE
  8
_0-0_1
  6
CONTINUOUS
 62
    7
 10
26.794836
 20
41.335994
 11
28.109152
 21
42.070464
  0
LINE
  8
_0-0_1
  6
CONTINUOUS
 62
    7
 10
26.794836
 20
45.321435
 11
26.794836
 21
41.335994
  0
LINE
  8
_0-0_1
  6
CONTINUOUS
 62
    7
 10
30.740899
 20
47.526588
 11
26.794836
 21
45.321435
  0
LINE
  8
_0-0_1
  6
CONTINUOUS
 62
    7
 10
30.740899
 20
43.541147
 11
30.740899
 21
47.526588
  0
LINE
  8
_0-0_1
  6
CONTINUOUS
 62
    7
 10
29.402056
 20
42.79297
 11
30.740899
 21
43.541147
  0
LINE
  8
_0-0_1
  6
CONTINUOUS
 62
    7
 10
29.402056
 20
26.382346
 11
29.402056
 21
42.79297
  0
LINE
  8
_0-0_1
  6
CONTINUOUS
 62
    7
 10
55.127066
 20
56.168623
 11
55.127066
 21
53.384276
  0
LINE
  8
_0-0_1
  6
CONTINUOUS
 62
    7
 10
49.43548
 20
58.597195
 11
55.127066
 21
56.168623
  0
LINE
  8
_0-0_1
  6
CONTINUOUS
 62
    7
 10
42.582853
 20
57.116827
 11
42.582853
 21
55.972277
  0
LINE
  8
_0-0_1
  6
CONTINUOUS
 62
    7
 10
49.43548
 20
58.597195
 11
42.582853
 21
57.116827
  0
LINE
  8
_0-0_1
  6
CONTINUOUS
 62
    7
 10
49.43548
 20
55.29517
 11
49.43548
 21
58.597195
  0
LINE
  8
_0-0_1
  6
CONTINUOUS
 62
    7
 10
59.661427
 20
47.915959
 11
59.661427
 21
24.569238
  0
LINE
  8
_0-0_1
  6
CONTINUOUS
 62
    7
 10
25.504279
 20
24.569238
 11
25.504279
 21
27.830809
  0
ARC
  8
_0-0_1
  6
CONTINUOUS
 62
    7
 10
42.582853
 20
22.741115
 40
33.232939
 50
71.643605
 51
108.35639
  0
ARC
  8
_0-0_1
  6
CONTINUOUS
 62
    7
 10
48.697125
 20
41.161875
 40
13.823954
 50
48.160836
 51
71.651737
  0
ARC
  8
_0-0_1
  6
CONTINUOUS
 62
    7
 10
54.636778
 20
47.646355
 40
5.0318771
 50
3.0713279
 51
49.296625
  0
ARC
  8
_0-0_1
  6
CONTINUOUS
 62
    7
 10
36.468581
 20
41.161875
 40
13.823954
 50
108.34826
 51
131.83916
  0
ARC
  8
_0-0_1
  6
CONTINUOUS
 62
    7
 10
30.528928
 20
47.646355
 40
5.0318771
 50
130.70337
 51
176.92867
  0
ARC
  8
_0-0_1
  6
CONTINUOUS
 62
    7
 10
41.802904
 20
25.518294
 40
3.9078969
 50
252.20699
 51
274.82685
  0
ARC
  8
_0-0_1
  6
CONTINUOUS
 62
    7
 10
42.941424
 20
32.551916
 40
10.974771
 50
231.95694
 51
255.31222
  0
ARC
  8
_0-0_1
  6
CONTINUOUS
 62
    7
 10
41.082062
 20
50.178073
 40
28.597142
 50
249.55709
 51
265.26047
  0
ARC
  8
_0-0_1
  6
CONTINUOUS
 62
    7
 10
40.766736
 20
50.737583
 40
28.062911
 50
252.99694
 51
260.37891
  0
ARC
  8
_0-0_1
  6
CONTINUOUS
 62
    7
 10
44.520275
 20
50.224909
 40
27.537195
 50
279.55052
 51
287.07361
  0
ARC
  8
_0-0_1
  6
CONTINUOUS
 62
    7
 10
44.134461
 20
49.950565
 40
28.366231
 50
274.67519
 51
290.50722
  0
ARC
  8
_0-0_1
  6
CONTINUOUS
 62
    7
 10
42.582853
 20
54.842234
 40
34.386551
 50
248.43549
 51
291.5645
  0
ARC
  8
_0-0_1
  6
CONTINUOUS
 62
    7
 10
42.582853
 20
57.927069
 40
38.510981
 50
257.18128
 51
282.81871
  0
ARC
  8
_0-0_1
  6
CONTINUOUS
 62
    7
 10
42.582853
 20
56.716069
 40
38.336707
 50
256.56917
 51
283.43082
  0
ARC
  8
_0-0_1
  6
CONTINUOUS
 62
    7
 10
42.582853
 20
55.783794
 40
38.443166
 50
256.83948
 51
283.16051
  0
ARC
  8
_0-0_1
  6
CONTINUOUS
 62
    7
 10
42.582853
 20
50.395562
 40
34.107369
 50
251.14692
 51
288.85307
  0
ARC
  8
_0-0_1
  6
CONTINUOUS
 62
    7
 10
42.582853
 20
48.299269
 40
33.043369
 50
245.97702
 51
294.02297
  0
ARC
  8
_0-0_1
  6
CONTINUOUS
 62
    7
 10
42.63978
 20
51.679827
 40
37.455444
 50
253.7903
 51
284.57892
  0
ARC
  8
_0-0_1
  6
CONTINUOUS
 62
    7
 10
36.64116
 20
29.711598
 40
14.690713
 50
238.23053
 51
252.33791
  0
ARC
  8
_0-0_1
  6
CONTINUOUS
 62
    7
 10
47.803877
 20
31.204812
 40
16.34056
 50
285.12596
 51
301.16114
  0
ARC
  8
_0-0_1
  6
CONTINUOUS
 62
    7
 10
42.582853
 20
52.623484
 40
39.542027
 50
259.86141
 51
280.13858
  0
ARC
  8
_0-0_1
  6
CONTINUOUS
 62
    7
 10
42.582853
 20
60.021461
 40
47.545504
 50
255.81653
 51
284.18346
  0
ARC
  8
_0-0_1
  6
CONTINUOUS
 62
    7
 10
42.582853
 20
-19.587761
 40
47.296412
 50
75.383152
 51
104.61684
  0
ARC
  8
_0-0_1
  6
CONTINUOUS
 62
    7
 10
42.582853
 20
-21.810637
 40
50.115689
 50
81.529353
 51
98.470646
  0
ARC
  8
_0-0_1
  6
CONTINUOUS
 62
    7
 10
42.582853
 20
-14.162981
 40
39.432561
 50
79.534508
 51
100.46549
  0
ARC
  8
_0-0_1
  6
CONTINUOUS
 62
    7
 10
48.412528
 20
34.691297
 40
14.570514
 50
280.73754
 51
302.06245
  0
ARC
  8
_0-0_1
  6
CONTINUOUS
 62
    7
 10
48.289591
 20
33.89877
 40
14.820049
 50
282.46092
 51
305.4355
  0
ARC
  8
_0-0_1
  6
CONTINUOUS
 62
    7
 10
48.782008
 20
31.469373
 40
13.365288
 50
281.0147
 51
310.48786
  0
ARC
  8
_0-0_1
  6
CONTINUOUS
 62
    7
 10
50.840378
 20
27.353352
 40
9.6400593
 50
286.66179
 51
317.05097
  0
ARC
  8
_0-0_1
  6
CONTINUOUS
 62
    7
 10
52.890666
 20
23.46355
 40
6.2016702
 50
300.46415
 51
328.96014
  0
ARC
  8
_0-0_1
  6
CONTINUOUS
 62
    7
 10
54.040289
 20
21.251498
 40
4.6001184
 50
298.84029
 51
340.90173
  0
ARC
  8
_0-0_1
  6
CONTINUOUS
 62
    7
 10
46.250086
 20
33.791271
 40
20.360477
 50
279.30856
 51
298.65666
  0
ARC
  8
_0-0_1
  6
CONTINUOUS
 62
    7
 10
46.062058
 20
3.8191786
 40
21.118137
 50
62.829369
 51
79.955011
  0
ARC
  8
_0-0_1
  6
CONTINUOUS
 62
    7
 10
45.724675
 20
-2.7964442
 40
30.847639
 50
67.716749
 51
82.099034
  0
ARC
  8
_0-0_1
  6
CONTINUOUS
 62
    7
 10
49.554236
 20
32.529241
 40
19.183187
 50
284.1162
 51
302.83833
  0
ARC
  8
_0-0_1
  6
CONTINUOUS
 62
    7
 10
49.875032
 20
8.4479899
 40
18.327837
 50
55.276123
 51
75.324494
  0
ARC
  8
_0-0_1
  6
CONTINUOUS
 62
    7
 10
53.472127
 20
15.521972
 40
10.961772
 50
42.732284
 51
68.881353
  0
ARC
  8
_0-0_1
  6
CONTINUOUS
 62
    7
 10
52.740582
 20
16.876831
 40
6.4517299
 50
33.734199
 51
62.641809
  0
ARC
  8
_0-0_1
  6
CONTINUOUS
 62
    7
 10
53.20615
 20
21.017041
 40
5.8151651
 50
298.87341
 51
326.91031
  0
ARC
  8
_0-0_1
  6
CONTINUOUS
 62
    7
 10
56.532813
 20
21.763204
 40
6.3532931
 50
302.60994
 51
330.79309
  0
ARC
  8
_0-0_1
  6
CONTINUOUS
 62
    7
 10
56.874223
 20
18.710446
 40
5.9068947
 50
26.913061
 51
54.37361
  0
ARC
  8
_0-0_1
  6
CONTINUOUS
 62
    7
 10
58.869472
 20
20.60382
 40
3.5495353
 50
356.64385
 51
41.597675
  0
ARC
  8
_0-0_1
  6
CONTINUOUS
 62
    7
 10
59.267735
 20
20.089375
 40
3.1518495
 50
333.09288
 51
24.254629
  0
ARC
  8
_0-0_1
  6
CONTINUOUS
 62
    7
 10
55.941952
 20
19.173824
 40
2.517267
 50
328.06356
 51
30.719707
  0
ARC
  8
_0-0_1
  6
CONTINUOUS
 62
    7
 10
36.753178
 20
34.691297
 40
14.570514
 50
237.93754
 51
259.26245
  0
ARC
  8
_0-0_1
  6
CONTINUOUS
 62
    7
 10
36.876115
 20
33.89877
 40
14.820049
 50
234.56449
 51
257.53907
  0
ARC
  8
_0-0_1
  6
CONTINUOUS
 62
    7
 10
36.383698
 20
31.469373
 40
13.365288
 50
229.51213
 51
258.98529
  0
ARC
  8
_0-0_1
  6
CONTINUOUS
 62
    7
 10
34.325328
 20
27.353352
 40
9.6400593
 50
222.94902
 51
253.3382
  0
ARC
  8
_0-0_1
  6
CONTINUOUS
 62
    7
 10
32.27504
 20
23.46355
 40
6.2016702
 50
211.03985
 51
239.53584
  0
ARC
  8
_0-0_1
  6
CONTINUOUS
 62
    7
 10
31.125417
 20
21.251498
 40
4.6001184
 50
199.09826
 51
241.1597
  0
ARC
  8
_0-0_1
  6
CONTINUOUS
 62
    7
 10
38.91562
 20
33.791271
 40
20.360477
 50
241.34333
 51
260.69143
  0
ARC
  8
_0-0_1
  6
CONTINUOUS
 62
    7
 10
39.103648
 20
3.8191786
 40
21.118137
 50
100.04498
 51
117.17063
  0
ARC
  8
_0-0_1
  6
CONTINUOUS
 62
    7
 10
39.441031
 20
-2.7964442
 40
30.847639
 50
97.900965
 51
112.28325
  0
ARC
  8
_0-0_1
  6
CONTINUOUS
 62
    7
 10
35.61147
 20
32.529241
 40
19.183187
 50
237.16166
 51
255.88379
  0
ARC
  8
_0-0_1
  6
CONTINUOUS
 62
    7
 10
35.290674
 20
8.4479899
 40
18.327837
 50
104.6755
 51
124.72387
  0
ARC
  8
_0-0_1
  6
CONTINUOUS
 62
    7
 10
31.693579
 20
15.521972
 40
10.961772
 50
111.11864
 51
137.26771
  0
ARC
  8
_0-0_1
  6
CONTINUOUS
 62
    7
 10
32.425124
 20
16.876831
 40
6.4517299
 50
117.35819
 51
146.2658
  0
ARC
  8
_0-0_1
  6
CONTINUOUS
 62
    7
 10
31.959556
 20
21.017041
 40
5.8151651
 50
213.08968
 51
241.12658
  0
ARC
  8
_0-0_1
  6
CONTINUOUS
 62
    7
 10
28.632893
 20
21.763204
 40
6.3532931
 50
209.2069
 51
237.39005
  0
ARC
  8
_0-0_1
  6
CONTINUOUS
 62
    7
 10
28.291483
 20
18.710446
 40
5.9068947
 50
125.62638
 51
153.08693
  0
ARC
  8
_0-0_1
  6
CONTINUOUS
 62
    7
 10
26.296234
 20
20.60382
 40
3.5495353
 50
138.40232
 51
183.35614
  0
ARC
  8
_0-0_1
  6
CONTINUOUS
 62
    7
 10
25.897971
 20
20.089375
 40
3.1518495
 50
155.74537
 51
206.90711
  0
ARC
  8
_0-0_1
  6
CONTINUOUS
 62
    7
 10
29.223754
 20
19.173824
 40
2.517267
 50
149.28029
 51
211.93643
  0
ARC
  8
_0-0_1
  6
CONTINUOUS
 62
    7
 10
23.092278
 20
28.325127
 40
1.5121918
 50
210.56218
 51
297.26946
  0
ARC
  8
_0-0_1
  6
CONTINUOUS
 62
    7
 10
22.593241
 20
27.990175
 40
0.9128263
 50
165.15181
 51
219.35334
  0
ARC
  8
_0-0_1
  6
CONTINUOUS
 62
    7
 10
23.04584
 20
28.298412
 40
1.2568363
 50
180.35474
 51
283.75857
  0
ARC
  8
_0-0_1
  6
CONTINUOUS
 62
    7
 10
42.582853
 20
32.226945
 40
11.233565
 50
224.01958
 51
315.98041
  0
ARC
  8
_0-0_1
  6
CONTINUOUS
 62
    7
 10
55.974709
 20
47.915956
 40
3.6867182
 50
0.0000458
 51
1.3797797
  0
ARC
  8
_0-0_1
  6
CONTINUOUS
 62
    7
 10
55.968829
 20
47.915815
 40
3.6925992
 50
1.3797712
 51
2.7581063
  0
ARC
  8
_0-0_1
  6
CONTINUOUS
 62
    7
 10
55.956536
 20
47.915236
 40
3.704906
 50
2.7578977
 51
4.1332447
  0
ARC
  8
_0-0_1
  6
CONTINUOUS
 62
    7
 10
55.937829
 20
47.913911
 40
3.7236598
 50
4.1328377
 51
5.5036283
  0
ARC
  8
_0-0_1
  6
CONTINUOUS
 62
    7
 10
55.912709
 20
47.91153
 40
3.7488931
 50
5.5030257
 51
6.8677224
  0
ARC
  8
_0-0_1
  6
CONTINUOUS
 62
    7
 10
55.881174
 20
47.907785
 40
3.7806493
 50
6.8669287
 51
8.2240355
  0
ARC
  8
_0-0_1
  6
CONTINUOUS
 62
    7
 10
55.843226
 20
47.902366
 40
3.8189825
 50
8.223056
 51
9.5711274
  0
ARC
  8
_0-0_1
  6
CONTINUOUS
 62
    7
 10
55.798863
 20
47.894965
 40
3.8639578
 50
9.5699688
 51
10.907618
  0
TEXT
  8
_0-0_1
 62
    7
 10
38.566601
 20
0.871875
 40
3
 41
0.9
 50
0
  1
YD1304
  0
ENDSEC
  0
EOF
