  0
SECTION
  2
HEADER
  9
$ACADVER
  1
AC1009
  9
$INSBASE
 10
0
 20
0
 30
0
  9
$EXTMIN
 10
0
 20
0
  9
$EXTMAX
 10
84.1
 20
59.4
  9
$LIMMIN
 10
0
 20
0
  9
$LIMMAX
 10
84.1
 20
59.4
  9
$LTSCALE
 40
0.1
  0
ENDSEC
  0
SECTION
  2
TABLES
  0
TABLE
  2
LTYPE
 70
     9
  0
LTYPE
  2
CONTINUOUS
 70
    64
  3
実線
 72
    65
 73
     0
 40
0.0
  0
LTYPE
  2
DASHED1
 70
    64
  3
--  --  --  --  --  --  --  --  
 72
    65
 73
     2
 40
2.5
 49
1.25
 49
-1.25
  0
LTYPE
  2
DASHED2
 70
    64
  3
----    ----    ----    ----    
 72
    65
 73
     2
 40
5.0
 49
2.5
 49
-2.5
  0
LTYPE
  2
DASHED3
 70
    64
  3
------  ------  ------  ------  
 72
    65
 73
     2
 40
5.0
 49
3.75
 49
-1.25
  0
LTYPE
  2
CENTER1
 70
    64
  3
----- - ----- - ----- - ----- - 
 72
    65
 73
     4
 40
10.0
 49
6.25
 49
-1.25
 49
1.25
 49
-1.25
  0
LTYPE
  2
CENTER2
 70
    64
  3
----------  --  ----------  --  
 72
    65
 73
     4
 40
20.0
 49
12.5
 49
-2.5
 49
2.5
 49
-2.5
  0
LTYPE
  2
PHANTOM1
 70
    64
  3
--- - - --- - - --- - - --- - - 
 72
    65
 73
     6
 40
10.0
 49
3.25
 49
-1.25
 49
1.25
 49
-1.25
 49
1.25
 49
-1.25
  0
LTYPE
  2
PHANTOM2
 70
    64
  3
--------  -  -  --------  -  -  
 72
    65
 73
     6
 40
20.0
 49
10.0
 49
-2.5
 49
1.25
 49
-2.5
 49
1.25
 49
-2.5
  0
LTYPE
  2
DOT
 70
    64
  3
-   -   -   -   -   -   -   -   
 72
    65
 73
     2
 40
2.5
 49
0.625
 49
-1.875
  0
LTYPE
  2
DUMMY
 70
    64
  3
ダミー
 72
    65
 73
     0
 40
0.0
  0
LTYPE
  2
RAND1
 70
    64
  3
----- - ----- - ----- - ----- - 
 72
    65
 73
     4
 40
10.0
 49
6.25
 49
-1.25
 49
1.25
 49
-1.25
  0
LTYPE
  2
RAND2
 70
    64
  3
----------  --  ----------  --  
 72
    65
 73
     4
 40
20.0
 49
12.5
 49
-2.5
 49
2.5
 49
-2.5
  0
LTYPE
  2
RAND3
 70
    64
  3
--- - - --- - - --- - - --- - - 
 72
    65
 73
     6
 40
10.0
 49
3.25
 49
-1.25
 49
1.25
 49
-1.25
 49
1.25
 49
-1.25
  0
LTYPE
  2
RAND4
 70
    64
  3
--------  -  -  --------  -  -  
 72
    65
 73
     6
 40
20.0
 49
10.0
 49
-2.5
 49
1.25
 49
-2.5
 49
1.25
 49
-2.5
  0
LTYPE
  2
RAND5
 70
    64
  3
----- - ----- - ----- - ----- - 
 72
    65
 73
     4
 40
10.0
 49
6.25
 49
-1.25
 49
1.25
 49
-1.25
  0
LTYPE
  2
LONG1
 70
    64
  3
----------  --  ----------  --  
 72
    65
 73
     4
 40
20.0
 49
12.5
 49
-2.5
 49
2.5
 49
-2.5
  0
LTYPE
  2
LONG2
 70
    64
  3
--- - - --- - - --- - - --- - - 
 72
    65
 73
     6
 40
10.0
 49
3.25
 49
-1.25
 49
1.25
 49
-1.25
 49
1.25
 49
-1.25
  0
LTYPE
  2
LONG3
 70
    64
  3
--------  -  -  --------  -  -  
 72
    65
 73
     6
 40
20.0
 49
10.0
 49
-2.5
 49
1.25
 49
-2.5
 49
1.25
 49
-2.5
  0
LTYPE
  2
LONG4
 70
    64
  3
----- - ----- - ----- - ----- - 
 72
    65
 73
     4
 40
10.0
 49
6.25
 49
-1.25
 49
1.25
 49
-1.25
  0
LTYPE
  2
LONG5
 70
    64
  3
----------  --  ----------  --  
 72
    65
 73
     4
 40
20.0
 49
12.5
 49
-2.5
 49
2.5
 49
-2.5
  0
ENDTAB
  0
TABLE
  2
STYLE
  5
3
100
AcDbSymbolTable
 70
     1
  0
STYLE
  5
10
100
AcDbSymbolTableRecord
100
AcDbTextStyleTableRecord
  2
STANDARD
 70
     0
 40
0.0
 41
1.0
 50
0.0
 71
     0
 42
0.2
  3
txt
  4
bigfont.shx
  0
ENDTAB
  0
TABLE
  2
LAYER
 70
    2
  0
LAYER
  2
_0-0_1
 70
   64
 62
    7
  6
CONTINUOUS
  0
LAYER
  2
ADD_LINE
 70
   64
 62
    7
  6
CONTINUOUS
  0
ENDTAB
  0
ENDSEC
  0
SECTION
  2
BLOCKS
  0
ENDSEC
  0
SECTION
  2
ENTITIES
  0
LINE
  8
_0-0_1
  6
CONTINUOUS
 62
    7
 10
32.496792
 20
32.302376
 11
31.846843
 21
32.863799
  0
LINE
  8
_0-0_1
  6
CONTINUOUS
 62
    7
 10
34.638867
 20
41.442331
 11
34.641602
 21
42.706953
  0
LINE
  8
_0-0_1
  6
CONTINUOUS
 62
    7
 10
33.338307
 20
42.379831
 11
33.312131
 21
41.038881
  0
LINE
  8
_0-0_1
  6
CONTINUOUS
 62
    7
 10
64.07876
 20
26.112466
 11
62.825104
 21
27.57181
  0
LINE
  8
_0-0_1
  6
CONTINUOUS
 62
    7
 10
30.784774
 20
33.115149
 11
30.56868
 21
32.411511
  0
LINE
  8
_0-0_1
  6
CONTINUOUS
 62
    7
 10
32.122891
 20
31.821162
 11
32.13316
 21
31.854598
  0
LINE
  8
_0-0_1
  6
CONTINUOUS
 62
    7
 10
29.799974
 20
31.572751
 11
30.56868
 21
32.411511
  0
LINE
  8
_0-0_1
  6
CONTINUOUS
 62
    7
 10
29.610984
 20
30.957366
 11
29.799974
 21
31.572751
  0
LINE
  8
_0-0_1
  6
CONTINUOUS
 62
    7
 10
32.342667
 20
31.818715
 11
32.360297
 21
31.876121
  0
LINE
  8
_0-0_1
  6
CONTINUOUS
 62
    7
 10
29.849755
 20
30.938006
 11
29.902108
 21
31.108477
  0
LINE
  8
_0-0_1
  6
CONTINUOUS
 62
    7
 10
29.609318
 20
30.954866
 11
29.823289
 21
30.915324
  0
LINE
  8
_0-0_1
  6
CONTINUOUS
 62
    7
 10
30.636561
 20
31.731275
 11
31.331064
 21
31.982838
  0
LINE
  8
_0-0_1
  6
CONTINUOUS
 62
    7
 10
30.636561
 20
31.731275
 11
29.965186
 21
31.161966
  0
LINE
  8
_0-0_1
  6
CONTINUOUS
 62
    7
 10
31.331064
 20
31.982838
 11
32.122891
 21
31.821162
  0
LINE
  8
_0-0_1
  6
CONTINUOUS
 62
    7
 10
29.965186
 20
31.161966
 11
29.902108
 21
31.108477
  0
LINE
  8
_0-0_1
  6
CONTINUOUS
 62
    7
 10
32.125921
 20
31.82173
 11
32.342667
 21
31.818715
  0
LINE
  8
_0-0_1
  6
CONTINUOUS
 62
    7
 10
29.728787
 20
30.961505
 11
29.851095
 21
30.938902
  0
LINE
  8
_0-0_1
  6
CONTINUOUS
 62
    7
 10
29.823289
 20
30.915324
 11
29.851095
 21
30.938902
  0
LINE
  8
_0-0_1
  6
CONTINUOUS
 62
    7
 10
29.902108
 20
31.108477
 11
29.700982
 21
30.937927
  0
LINE
  8
_0-0_1
  6
CONTINUOUS
 62
    7
 10
32.122891
 20
31.821162
 11
32.13316
 21
31.854598
  0
LINE
  8
_0-0_1
  6
CONTINUOUS
 62
    7
 10
29.799974
 20
31.572751
 11
30.56868
 21
32.411511
  0
LINE
  8
_0-0_1
  6
CONTINUOUS
 62
    7
 10
29.610984
 20
30.957366
 11
29.799974
 21
31.572751
  0
LINE
  8
_0-0_1
  6
CONTINUOUS
 62
    7
 10
32.342667
 20
31.818715
 11
32.360297
 21
31.876121
  0
LINE
  8
_0-0_1
  6
CONTINUOUS
 62
    7
 10
29.849755
 20
30.938006
 11
29.902108
 21
31.108477
  0
LINE
  8
_0-0_1
  6
CONTINUOUS
 62
    7
 10
29.609318
 20
30.954866
 11
29.823289
 21
30.915324
  0
LINE
  8
_0-0_1
  6
CONTINUOUS
 62
    7
 10
30.636561
 20
31.731275
 11
31.331064
 21
31.982838
  0
LINE
  8
_0-0_1
  6
CONTINUOUS
 62
    7
 10
30.636561
 20
31.731275
 11
29.965186
 21
31.161966
  0
LINE
  8
_0-0_1
  6
CONTINUOUS
 62
    7
 10
31.331064
 20
31.982838
 11
32.122891
 21
31.821162
  0
LINE
  8
_0-0_1
  6
CONTINUOUS
 62
    7
 10
29.965186
 20
31.161966
 11
29.902108
 21
31.108477
  0
LINE
  8
_0-0_1
  6
CONTINUOUS
 62
    7
 10
32.125921
 20
31.82173
 11
32.342667
 21
31.818715
  0
LINE
  8
_0-0_1
  6
CONTINUOUS
 62
    7
 10
29.823289
 20
30.915324
 11
29.851095
 21
30.938902
  0
LINE
  8
_0-0_1
  6
CONTINUOUS
 62
    7
 10
29.902108
 20
31.108477
 11
29.728787
 21
30.961505
  0
LINE
  8
_0-0_1
  6
CONTINUOUS
 62
    7
 10
31.992617
 20
33.338464
 11
31.794109
 21
32.692088
  0
LINE
  8
_0-0_1
  6
CONTINUOUS
 62
    7
 10
32.271638
 20
32.305508
 11
31.709196
 21
32.760829
  0
LINE
  8
_0-0_1
  6
CONTINUOUS
 62
    7
 10
32.476008
 20
32.876267
 11
32.869674
 21
32.775348
  0
LINE
  8
_0-0_1
  6
CONTINUOUS
 62
    7
 10
31.923588
 20
33.458926
 11
31.709196
 21
32.760829
  0
LINE
  8
_0-0_1
  6
CONTINUOUS
 62
    7
 10
31.923588
 20
33.458926
 11
32.591914
 21
33.253677
  0
LINE
  8
_0-0_1
  6
CONTINUOUS
 62
    7
 10
32.13316
 20
31.854598
 11
32.358313
 21
31.851466
  0
LINE
  8
_0-0_1
  6
CONTINUOUS
 62
    7
 10
32.271638
 20
32.305508
 11
32.496792
 21
32.302376
  0
LINE
  8
_0-0_1
  6
CONTINUOUS
 62
    7
 10
32.1495
 20
31.907804
 11
32.271638
 21
32.305508
  0
LINE
  8
_0-0_1
  6
CONTINUOUS
 62
    7
 10
32.360297
 20
31.876121
 11
32.492856
 21
32.307755
  0
LINE
  8
_0-0_1
  6
CONTINUOUS
 62
    7
 10
32.13316
 20
31.854598
 11
32.1495
 21
31.907804
  0
LINE
  8
_0-0_1
  6
CONTINUOUS
 62
    7
 10
32.476008
 20
32.876267
 11
32.564057
 21
33.16297
  0
LINE
  8
_0-0_1
  6
CONTINUOUS
 62
    7
 10
32.564057
 20
33.16297
 11
32.591914
 21
33.253677
  0
LINE
  8
_0-0_1
  6
CONTINUOUS
 62
    7
 10
31.992617
 20
33.338464
 11
32.564057
 21
33.16297
  0
LINE
  8
_0-0_1
  6
CONTINUOUS
 62
    7
 10
32.271638
 20
32.305508
 11
31.709196
 21
32.760829
  0
LINE
  8
_0-0_1
  6
CONTINUOUS
 62
    7
 10
31.923588
 20
33.458926
 11
31.709196
 21
32.760829
  0
LINE
  8
_0-0_1
  6
CONTINUOUS
 62
    7
 10
31.923588
 20
33.458926
 11
32.591914
 21
33.253677
  0
LINE
  8
_0-0_1
  6
CONTINUOUS
 62
    7
 10
32.13316
 20
31.854598
 11
32.358313
 21
31.851466
  0
LINE
  8
_0-0_1
  6
CONTINUOUS
 62
    7
 10
32.271638
 20
32.305508
 11
32.496792
 21
32.302376
  0
LINE
  8
_0-0_1
  6
CONTINUOUS
 62
    7
 10
32.1495
 20
31.907804
 11
32.271638
 21
32.305508
  0
LINE
  8
_0-0_1
  6
CONTINUOUS
 62
    7
 10
32.360297
 20
31.876121
 11
32.492856
 21
32.307755
  0
LINE
  8
_0-0_1
  6
CONTINUOUS
 62
    7
 10
32.13316
 20
31.854598
 11
32.1495
 21
31.907804
  0
LINE
  8
_0-0_1
  6
CONTINUOUS
 62
    7
 10
32.476008
 20
32.876267
 11
32.564057
 21
33.16297
  0
LINE
  8
_0-0_1
  6
CONTINUOUS
 62
    7
 10
32.564057
 20
33.16297
 11
32.591914
 21
33.253677
  0
LINE
  8
_0-0_1
  6
CONTINUOUS
 62
    7
 10
32.280684
 20
34.621689
 11
32.178038
 21
34.287456
  0
LINE
  8
_0-0_1
  6
CONTINUOUS
 62
    7
 10
32.064829
 20
33.91883
 11
31.984692
 21
33.657891
  0
LINE
  8
_0-0_1
  6
CONTINUOUS
 62
    7
 10
32.280684
 20
34.621689
 11
32.178038
 21
34.287456
  0
LINE
  8
_0-0_1
  6
CONTINUOUS
 62
    7
 10
32.064829
 20
33.91883
 11
31.984692
 21
33.657891
  0
LINE
  8
_0-0_1
  6
CONTINUOUS
 62
    7
 10
31.315885
 20
35.435102
 11
31.523411
 21
35.505218
  0
LINE
  8
_0-0_1
  6
CONTINUOUS
 62
    7
 10
31.315885
 20
35.435102
 11
31.315885
 21
34.829479
  0
LINE
  8
_0-0_1
  6
CONTINUOUS
 62
    7
 10
32.476008
 20
32.876267
 11
32.869674
 21
32.775348
  0
LINE
  8
_0-0_1
  6
CONTINUOUS
 62
    7
 10
34.518465
 20
34.280085
 11
32.869674
 21
32.775348
  0
LINE
  8
_0-0_1
  6
CONTINUOUS
 62
    7
 10
34.378806
 20
33.153001
 11
34.378806
 21
34.152628
  0
LINE
  8
_0-0_1
  6
CONTINUOUS
 62
    7
 10
34.640973
 20
33.261668
 11
34.640973
 21
34.756071
  0
LINE
  8
_0-0_1
  6
CONTINUOUS
 62
    7
 10
33.68267
 20
38.840357
 11
33.613641
 21
38.960819
  0
LINE
  8
_0-0_1
  6
CONTINUOUS
 62
    7
 10
33.68267
 20
38.840357
 11
33.613641
 21
38.960819
  0
LINE
  8
_0-0_1
  6
CONTINUOUS
 62
    7
 10
35.234503
 20
37.062155
 11
34.518465
 21
34.280085
  0
LINE
  8
_0-0_1
  6
CONTINUOUS
 62
    7
 10
33.613812
 20
38.962584
 11
32.393718
 21
34.98975
  0
LINE
  8
_0-0_1
  6
CONTINUOUS
 62
    7
 10
33.613641
 20
38.960819
 11
33.396679
 21
36.730456
  0
LINE
  8
_0-0_1
  6
CONTINUOUS
 62
    7
 10
33.68267
 20
38.840357
 11
33.467279
 21
36.799751
  0
LINE
  8
_0-0_1
  6
CONTINUOUS
 62
    7
 10
34.378806
 20
37.45559
 11
34.378806
 21
39.434486
  0
LINE
  8
_0-0_1
  6
CONTINUOUS
 62
    7
 10
34.640973
 20
39.658236
 11
34.640973
 21
38.026942
  0
LINE
  8
_0-0_1
  6
CONTINUOUS
 62
    7
 10
34.150992
 20
36.959102
 11
35.208968
 21
39.264801
  0
LINE
  8
_0-0_1
  6
CONTINUOUS
 62
    7
 10
34.172872
 20
36.529657
 11
35.230847
 21
38.835355
  0
LINE
  8
_0-0_1
  6
CONTINUOUS
 62
    7
 10
35.234503
 20
40.169167
 11
35.234503
 21
38.883561
  0
LINE
  8
_0-0_1
  6
CONTINUOUS
 62
    7
 10
33.228235
 20
39.653559
 11
33.162239
 21
39.743281
  0
LINE
  8
_0-0_1
  6
CONTINUOUS
 62
    7
 10
33.500214
 20
40.858566
 11
33.594859
 21
40.887811
  0
LINE
  8
_0-0_1
  6
CONTINUOUS
 62
    7
 10
33.667492
 20
40.584838
 11
33.43702
 21
39.827118
  0
LINE
  8
_0-0_1
  6
CONTINUOUS
 62
    7
 10
33.55585
 20
40.582665
 11
33.348425
 21
39.900716
  0
LINE
  8
_0-0_1
  6
CONTINUOUS
 62
    7
 10
33.329526
 20
40.632143
 11
33.1371
 21
39.999034
  0
LINE
  8
_0-0_1
  6
CONTINUOUS
 62
    7
 10
33.086061
 20
42.288463
 11
33.338307
 21
42.379831
  0
LINE
  8
_0-0_1
  6
CONTINUOUS
 62
    7
 10
33.086061
 20
42.288463
 11
33.338307
 21
42.379831
  0
LINE
  8
_0-0_1
  6
CONTINUOUS
 62
    7
 10
33.338307
 20
42.379831
 11
32.981182
 21
41.216971
  0
LINE
  8
_0-0_1
  6
CONTINUOUS
 62
    7
 10
33.722128
 20
42.373901
 11
33.312131
 21
41.038881
  0
LINE
  8
_0-0_1
  6
CONTINUOUS
 62
    7
 10
33.722128
 20
42.373901
 11
34.641602
 21
42.706953
  0
LINE
  8
_0-0_1
  6
CONTINUOUS
 62
    7
 10
34.641602
 20
42.706953
 11
34.224647
 21
41.349278
  0
LINE
  8
_0-0_1
  6
CONTINUOUS
 62
    7
 10
35.079371
 20
42.876688
 11
34.555596
 21
41.171188
  0
LINE
  8
_0-0_1
  6
CONTINUOUS
 62
    7
 10
35.079371
 20
42.876688
 11
35.462324
 21
43.015402
  0
LINE
  8
_0-0_1
  6
CONTINUOUS
 62
    7
 10
35.462324
 20
43.015402
 11
35.531353
 21
42.89494
  0
LINE
  8
_0-0_1
  6
CONTINUOUS
 62
    7
 10
35.462324
 20
43.015402
 11
35.531353
 21
42.89494
  0
LINE
  8
_0-0_1
  6
CONTINUOUS
 62
    7
 10
35.440031
 20
42.232157
 11
35.435891
 21
42.086695
  0
LINE
  8
_0-0_1
  6
CONTINUOUS
 62
    7
 10
35.440031
 20
42.232157
 11
35.435891
 21
42.086695
  0
LINE
  8
_0-0_1
  6
CONTINUOUS
 62
    7
 10
35.440031
 20
42.232157
 11
35.435891
 21
42.086695
  0
LINE
  8
_0-0_1
  6
CONTINUOUS
 62
    7
 10
35.440031
 20
42.232157
 11
35.435891
 21
42.086695
  0
LINE
  8
_0-0_1
  6
CONTINUOUS
 62
    7
 10
35.531353
 20
42.89494
 11
35.50906
 21
42.111695
  0
LINE
  8
_0-0_1
  6
CONTINUOUS
 62
    7
 10
35.462324
 20
43.015402
 11
35.440031
 21
42.232157
  0
LINE
  8
_0-0_1
  6
CONTINUOUS
 62
    7
 10
35.435891
 20
42.086695
 11
35.406616
 21
41.058148
  0
LINE
  8
_0-0_1
  6
CONTINUOUS
 62
    7
 10
35.50906
 20
42.111695
 11
35.475645
 21
40.937686
  0
LINE
  8
_0-0_1
  6
CONTINUOUS
 62
    7
 10
35.475645
 20
40.937686
 11
35.406616
 21
41.058148
  0
LINE
  8
_0-0_1
  6
CONTINUOUS
 62
    7
 10
35.475645
 20
40.937686
 11
35.406616
 21
41.058148
  0
LINE
  8
_0-0_1
  6
CONTINUOUS
 62
    7
 10
35.239626
 20
40.169167
 11
35.170597
 21
40.289629
  0
LINE
  8
_0-0_1
  6
CONTINUOUS
 62
    7
 10
35.239626
 20
40.169167
 11
35.170597
 21
40.289629
  0
LINE
  8
_0-0_1
  6
CONTINUOUS
 62
    7
 10
35.406616
 20
41.058148
 11
35.170597
 21
40.289629
  0
LINE
  8
_0-0_1
  6
CONTINUOUS
 62
    7
 10
35.475645
 20
40.937686
 11
35.239626
 21
40.169167
  0
LINE
  8
_0-0_1
  6
CONTINUOUS
 62
    7
 10
35.239626
 20
40.169167
 11
33.68267
 21
38.840357
  0
LINE
  8
_0-0_1
  6
CONTINUOUS
 62
    7
 10
35.170597
 20
40.289629
 11
33.613641
 21
38.960819
  0
LINE
  8
_0-0_1
  6
CONTINUOUS
 62
    7
 10
32.512597
 20
39.075474
 11
32.512597
 21
38.726176
  0
LINE
  8
_0-0_1
  6
CONTINUOUS
 62
    7
 10
32.592519
 20
38.986417
 11
30.789106
 21
33.114197
  0
LINE
  8
_0-0_1
  6
CONTINUOUS
 62
    7
 10
31.900993
 20
39.78834
 11
32.588187
 21
38.987369
  0
LINE
  8
_0-0_1
  6
CONTINUOUS
 62
    7
 10
32.119671
 20
40.49666
 11
31.900993
 21
39.78834
  0
LINE
  8
_0-0_1
  6
CONTINUOUS
 62
    7
 10
33.086061
 20
42.288463
 11
32.119671
 21
40.49666
  0
LINE
  8
_0-0_1
  6
CONTINUOUS
 62
    7
 10
29.821577
 20
30.915641
 11
29.821577
 21
23.80657
  0
LINE
  8
_0-0_1
  6
CONTINUOUS
 62
    7
 10
33.548659
 20
25.795571
 11
35.234503
 21
25.929621
  0
LINE
  8
_0-0_1
  6
CONTINUOUS
 62
    7
 10
33.548659
 20
33.39501
 11
33.548659
 21
25.795571
  0
LINE
  8
_0-0_1
  6
CONTINUOUS
 62
    7
 10
33.960099
 20
33.770503
 11
33.960099
 21
25.828287
  0
LINE
  8
_0-0_1
  6
CONTINUOUS
 62
    7
 10
35.234503
 20
39.138659
 11
35.234503
 21
25.929621
  0
LINE
  8
_0-0_1
  6
CONTINUOUS
 62
    7
 10
33.548659
 20
44.510615
 11
33.960099
 21
44.25148
  0
LINE
  8
_0-0_1
  6
CONTINUOUS
 62
    7
 10
31.39473
 20
47.756218
 11
31.80617
 21
47.393432
  0
LINE
  8
_0-0_1
  6
CONTINUOUS
 62
    7
 10
35.234503
 20
44.873355
 11
35.234503
 21
42.922656
  0
LINE
  8
_0-0_1
  6
CONTINUOUS
 62
    7
 10
33.960099
 20
44.25148
 11
33.960099
 21
42.485951
  0
LINE
  8
_0-0_1
  6
CONTINUOUS
 62
    7
 10
33.548659
 20
44.510615
 11
33.548659
 21
41.808426
  0
LINE
  8
_0-0_1
  6
CONTINUOUS
 62
    7
 10
31.80617
 20
47.393432
 11
31.80617
 21
44.028347
  0
LINE
  8
_0-0_1
  6
CONTINUOUS
 62
    7
 10
31.39473
 20
47.756218
 11
31.39473
 21
43.896207
  0
LINE
  8
_0-0_1
  6
CONTINUOUS
 62
    7
 10
37.45649
 20
49.090631
 11
37.45649
 21
45.23062
  0
LINE
  8
_0-0_1
  6
CONTINUOUS
 62
    7
 10
39.256074
 20
24.976709
 11
39.256074
 21
51.043081
  0
LINE
  8
_0-0_1
  6
CONTINUOUS
 62
    7
 10
29.821577
 20
48.987205
 11
29.821577
 21
31.596322
  0
LINE
  8
_0-0_1
  6
CONTINUOUS
 62
    7
 10
26.016834
 20
21.992866
 11
26.016834
 21
52.389543
  0
LINE
  8
_0-0_1
  6
CONTINUOUS
 62
    7
 10
19.327665
 20
46.714454
 11
26.016834
 21
48.79771
  0
LINE
  8
_0-0_1
  6
CONTINUOUS
 62
    7
 10
19.327665
 20
45.726997
 11
26.016834
 21
47.810253
  0
LINE
  8
_0-0_1
  6
CONTINUOUS
 62
    7
 10
19.327665
 20
45.726997
 11
26.016834
 21
44.28459
  0
LINE
  8
_0-0_1
  6
CONTINUOUS
 62
    7
 10
19.327665
 20
45.726997
 11
19.327665
 21
46.714454
  0
LINE
  8
_0-0_1
  6
CONTINUOUS
 62
    7
 10
20.14296
 20
49.971265
 11
20.14296
 21
46.968367
  0
LINE
  8
_0-0_1
  6
CONTINUOUS
 62
    7
 10
20.14296
 20
49.971265
 11
26.016834
 21
51.800607
  0
LINE
  8
_0-0_1
  6
CONTINUOUS
 62
    7
 10
64.772334
 20
26.229378
 11
64.772334
 21
26.645281
  0
LINE
  8
_0-0_1
  6
CONTINUOUS
 62
    7
 10
64.222974
 20
26.112466
 11
64.222974
 21
26.528369
  0
LINE
  8
_0-0_1
  6
CONTINUOUS
 62
    7
 10
64.07876
 20
26.112466
 11
64.07876
 21
26.528369
  0
LINE
  8
_0-0_1
  6
CONTINUOUS
 62
    7
 10
64.222974
 20
26.528369
 11
64.772334
 21
26.645281
  0
LINE
  8
_0-0_1
  6
CONTINUOUS
 62
    7
 10
64.222974
 20
26.528369
 11
64.07876
 21
26.528369
  0
LINE
  8
_0-0_1
  6
CONTINUOUS
 62
    7
 10
64.222974
 20
26.112466
 11
64.772334
 21
26.229378
  0
LINE
  8
_0-0_1
  6
CONTINUOUS
 62
    7
 10
64.222974
 20
26.112466
 11
64.07876
 21
26.112466
  0
LINE
  8
_0-0_1
  6
CONTINUOUS
 62
    7
 10
64.772334
 20
26.645281
 11
63.515798
 21
28.604963
  0
LINE
  8
_0-0_1
  6
CONTINUOUS
 62
    7
 10
64.07876
 20
26.528369
 11
63.157966
 21
27.57181
  0
LINE
  8
_0-0_1
  6
CONTINUOUS
 62
    7
 10
63.157966
 20
27.57181
 11
62.223583
 21
27.57181
  0
LINE
  8
_0-0_1
  6
CONTINUOUS
 62
    7
 10
63.515798
 20
28.604963
 11
62.223583
 21
32.005712
  0
LINE
  8
_0-0_1
  6
CONTINUOUS
 62
    7
 10
35.12703
 20
18.872695
 11
38.914518
 21
19.496605
  0
LINE
  8
_0-0_1
  6
CONTINUOUS
 62
    7
 10
35.566084
 20
18.252254
 11
40.749032
 21
19.163057
  0
LINE
  8
_0-0_1
  6
CONTINUOUS
 62
    7
 10
44.03991
 20
17.946479
 11
41.058755
 21
17.519142
  0
LINE
  8
_0-0_1
  6
CONTINUOUS
 62
    7
 10
44.726763
 20
17.44633
 11
38.62862
 21
16.447023
  0
LINE
  8
_0-0_1
  6
CONTINUOUS
 62
    7
 10
45.386687
 20
16.918228
 11
39.653088
 21
16.018176
  0
LINE
  8
_0-0_1
  6
CONTINUOUS
 62
    7
 10
41.259882
 20
14.013031
 11
46.157274
 21
14.588684
  0
LINE
  8
_0-0_1
  6
CONTINUOUS
 62
    7
 10
54.747937
 20
22.061667
 11
50.269508
 21
14.304799
  0
LINE
  8
_0-0_1
  6
CONTINUOUS
 62
    7
 10
23.548192
 20
18.708563
 11
23.55272
 21
19.635682
  0
LINE
  8
_0-0_1
  6
CONTINUOUS
 62
    7
 10
64.682886
 20
18.85826
 11
64.689371
 21
19.614198
  0
LINE
  8
_0-0_1
  6
CONTINUOUS
 62
    7
 10
62.223583
 20
21.973178
 11
62.223583
 21
52.389543
  0
ARC
  8
_0-0_1
  6
CONTINUOUS
 62
    7
 10
33.904248
 20
37.148648
 40
0.3519296
 50
263.97071
 51
289.225
  0
ARC
  8
_0-0_1
  6
CONTINUOUS
 62
    7
 10
33.942963
 20
37.394586
 40
0.6007078
 50
237.57656
 51
262.76226
  0
ARC
  8
_0-0_1
  6
CONTINUOUS
 62
    7
 10
33.794826
 20
37.19346
 40
0.3519296
 50
210.05931
 51
240.37881
  0
ARC
  8
_0-0_1
  6
CONTINUOUS
 62
    7
 10
33.901964
 20
36.783496
 40
0.434989
 50
170.09072
 51
209.21495
  0
ARC
  8
_0-0_1
  6
CONTINUOUS
 62
    7
 10
33.869082
 20
36.804397
 40
0.4179008
 50
213.92164
 51
259.47543
  0
ARC
  8
_0-0_1
  6
CONTINUOUS
 62
    7
 10
33.926127
 20
36.719202
 40
0.3519296
 50
247.72888
 51
289.225
  0
ARC
  8
_0-0_1
  6
CONTINUOUS
 62
    7
 10
33.821763
 20
37.279628
 40
0.5032226
 50
227.07331
 51
256.32211
  0
ARC
  8
_0-0_1
  6
CONTINUOUS
 62
    7
 10
33.836147
 20
37.116352
 40
0.3519296
 50
247.72888
 51
289.02877
  0
ARC
  8
_0-0_1
  6
CONTINUOUS
 62
    7
 10
33.836147
 20
37.116352
 40
0.3519296
 50
289.02877
 51
333.46004
  0
ARC
  8
_0-0_1
  6
CONTINUOUS
 62
    7
 10
33.748606
 20
36.731719
 40
0.3519296
 50
180.20555
 51
223.16583
  0
ARC
  8
_0-0_1
  6
CONTINUOUS
 62
    7
 10
33.866295
 20
36.865693
 40
0.5297015
 50
225.02714
 51
272.76957
  0
ARC
  8
_0-0_1
  6
CONTINUOUS
 62
    7
 10
33.858027
 20
36.686907
 40
0.3519296
 50
275.52149
 51
333.46004
  0
ARC
  8
_0-0_1
  6
CONTINUOUS
 62
    7
 10
33.677668
 20
39.857115
 40
0.5588875
 50
165.28975
 51
175.78009
  0
ARC
  8
_0-0_1
  6
CONTINUOUS
 62
    7
 10
33.43881
 20
39.876021
 40
0.3192878
 50
176.00949
 51
196.65184
  0
ARC
  8
_0-0_1
  6
CONTINUOUS
 62
    7
 10
33.198641
 20
39.804222
 40
0.0686168
 50
196.67994
 51
280.82139
  0
ARC
  8
_0-0_1
  6
CONTINUOUS
 62
    7
 10
33.17351
 20
39.853605
 40
0.122811
 50
288.03105
 51
320.5794
  0
ARC
  8
_0-0_1
  6
CONTINUOUS
 62
    7
 10
32.935316
 20
40.076886
 40
0.4491045
 50
317.86988
 51
336.90426
  0
ARC
  8
_0-0_1
  6
CONTINUOUS
 62
    7
 10
33.265844
 20
39.703501
 40
0.0625188
 50
233.01794
 51
302.32701
  0
ARC
  8
_0-0_1
  6
CONTINUOUS
 62
    7
 10
33.208119
 20
39.8241
 40
0.1959264
 50
297.72731
 51
325.7387
  0
ARC
  8
_0-0_1
  6
CONTINUOUS
 62
    7
 10
32.848801
 20
40.098312
 40
0.6477253
 50
323.58463
 51
335.24825
  0
ARC
  8
_0-0_1
  6
CONTINUOUS
 62
    7
 10
33.098661
 20
40.743961
 40
0.5906594
 50
343.24961
 51
1.2553105
  0
ARC
  8
_0-0_1
  6
CONTINUOUS
 62
    7
 10
33.470827
 20
40.750218
 40
0.2184531
 50
1.7530153
 51
31.663525
  0
ARC
  8
_0-0_1
  6
CONTINUOUS
 62
    7
 10
33.607639
 20
40.827274
 40
0.0618715
 50
37.443165
 51
101.921
  0
ARC
  8
_0-0_1
  6
CONTINUOUS
 62
    7
 10
33.028266
 20
40.730528
 40
0.5478785
 50
344.16965
 51
357.68831
  0
ARC
  8
_0-0_1
  6
CONTINUOUS
 62
    7
 10
33.332057
 20
40.720824
 40
0.2439565
 50
357.08758
 51
25.966159
  0
ARC
  8
_0-0_1
  6
CONTINUOUS
 62
    7
 10
33.495353
 20
40.792723
 40
0.0660218
 50
31.927229
 51
85.778121
  0
ARC
  8
_0-0_1
  6
CONTINUOUS
 62
    7
 10
33.536363
 20
40.713639
 40
0.149367
 50
104.00558
 51
125.48637
  0
ARC
  8
_0-0_1
  6
CONTINUOUS
 62
    7
 10
33.59047
 20
40.651416
 40
0.2315778
 50
127.45025
 51
149.9241
  0
ARC
  8
_0-0_1
  6
CONTINUOUS
 62
    7
 10
33.827377
 20
40.48746
 40
0.519271
 50
147.36813
 51
166.26805
  0
ARC
  8
_0-0_1
  6
CONTINUOUS
 62
    7
 10
32.952817
 20
40.906693
 40
0.2569563
 50
294.59061
 51
319.00495
  0
ARC
  8
_0-0_1
  6
CONTINUOUS
 62
    7
 10
33.030021
 20
40.745918
 40
0.0787048
 50
218.3088
 51
292.18892
  0
ARC
  8
_0-0_1
  6
CONTINUOUS
 62
    7
 10
33.150386
 20
40.82917
 40
0.2249531
 50
178.45985
 51
215.94248
  0
ARC
  8
_0-0_1
  6
CONTINUOUS
 62
    7
 10
33.87852
 20
40.891184
 40
0.9546481
 50
160.04609
 51
183.36099
  0
ARC
  8
_0-0_1
  6
CONTINUOUS
 62
    7
 10
32.519056
 20
41.279126
 40
0.828665
 50
319.24313
 51
343.14695
  0
ARC
  8
_0-0_1
  6
CONTINUOUS
 62
    7
 10
33.500086
 20
41.542174
 40
1.1188091
 50
326.23318
 51
340.63467
  0
ARC
  8
_0-0_1
  6
CONTINUOUS
 62
    7
 10
34.096483
 20
41.152493
 40
0.4064995
 50
303.22458
 51
325.17017
  0
ARC
  8
_0-0_1
  6
CONTINUOUS
 62
    7
 10
34.273998
 20
40.879974
 40
0.0812699
 50
202.36948
 51
303.80449
  0
ARC
  8
_0-0_1
  6
CONTINUOUS
 62
    7
 10
34.513837
 20
41.000697
 40
0.3495986
 50
171.65609
 51
205.7083
  0
ARC
  8
_0-0_1
  6
CONTINUOUS
 62
    7
 10
35.298004
 20
40.990594
 40
1.1317019
 50
161.52189
 51
176.91856
  0
ARC
  8
_0-0_1
  6
CONTINUOUS
 62
    7
 10
41.90484
 20
-34.998441
 40
60.033612
 50
92.528789
 51
101.61152
  0
ARC
  8
_0-0_1
  6
CONTINUOUS
 62
    7
 10
40.003479
 20
17.799217
 40
27.480237
 50
103.58511
 51
108.25644
  0
ARC
  8
_0-0_1
  6
CONTINUOUS
 62
    7
 10
42.873319
 20
4.4526205
 40
41.136204
 50
97.566702
 51
100.70169
  0
ARC
  8
_0-0_1
  6
CONTINUOUS
 62
    7
 10
39.169342
 20
27.557066
 40
21.158868
 50
94.643286
 51
110.3647
  0
ARC
  8
_0-0_1
  6
CONTINUOUS
 62
    7
 10
41.943795
 20
14.270995
 40
35.107591
 50
97.343394
 51
107.48632
  0
ARC
  8
_0-0_1
  6
CONTINUOUS
 62
    7
 10
41.659984
 20
17.335853
 40
33.792839
 50
94.079276
 51
110.50707
  0
ARC
  8
_0-0_1
  6
CONTINUOUS
 62
    7
 10
57.270357
 20
38.234404
 40
0.5599769
 50
143.96763
 51
215.56952
  0
ARC
  8
_0-0_1
  6
CONTINUOUS
 62
    7
 10
56.719065
 20
38.234351
 40
0.5710814
 50
324.60406
 51
35.797451
  0
ARC
  8
_0-0_1
  6
CONTINUOUS
 62
    7
 10
57.001402
 20
38.027257
 40
0.2210387
 50
212.44537
 51
325.97295
  0
ARC
  8
_0-0_1
  6
CONTINUOUS
 62
    7
 10
57.001476
 20
38.43972
 40
0.2219001
 50
35.43984
 51
145.99986
  0
ARC
  8
_0-0_1
  6
CONTINUOUS
 62
    7
 10
57.211827
 20
38.249183
 40
0.8387308
 50
142.03622
 51
218.44375
  0
ARC
  8
_0-0_1
  6
CONTINUOUS
 62
    7
 10
57.001485
 20
38.069862
 40
0.5625777
 50
217.45903
 51
321.31652
  0
ARC
  8
_0-0_1
  6
CONTINUOUS
 62
    7
 10
56.78219
 20
38.249568
 40
0.8460871
 50
321.09864
 51
36.767054
  0
ARC
  8
_0-0_1
  6
CONTINUOUS
 62
    7
 10
57.001934
 20
38.428363
 40
0.5631575
 50
35.576866
 51
143.2721
  0
ARC
  8
_0-0_1
  6
CONTINUOUS
 62
    7
 10
57.223797
 20
41.238162
 40
0.7249798
 50
149.5942
 51
216.69661
  0
ARC
  8
_0-0_1
  6
CONTINUOUS
 62
    7
 10
56.77029
 20
41.238013
 40
0.7329704
 50
325.87754
 51
31.198911
  0
ARC
  8
_0-0_1
  6
CONTINUOUS
 62
    7
 10
57.002349
 20
41.065218
 40
0.4441181
 50
215.87923
 51
327.53808
  0
ARC
  8
_0-0_1
  6
CONTINUOUS
 62
    7
 10
57.001091
 20
41.40872
 40
0.447903
 50
27.811972
 51
153.99694
  0
ARC
  8
_0-0_1
  6
CONTINUOUS
 62
    7
 10
44.214463
 20
9.0698371
 40
49.435359
 50
78.014493
 51
102.86907
  0
ARC
  8
_0-0_1
  6
CONTINUOUS
 62
    7
 10
37.233056
 20
40.448978
 40
17.290453
 50
103.47496
 51
126.0848
  0
ARC
  8
_0-0_1
  6
CONTINUOUS
 62
    7
 10
29.207692
 20
52.047325
 40
3.2091567
 50
132.26623
 51
173.87846
  0
ARC
  8
_0-0_1
  6
CONTINUOUS
 62
    7
 10
50.825788
 20
40.003015
 40
17.803636
 50
55.465472
 51
80.752697
  0
ARC
  8
_0-0_1
  6
CONTINUOUS
 62
    7
 10
58.883778
 20
51.991342
 40
3.3634593
 50
6.799198
 51
52.770143
  0
ARC
  8
_0-0_1
  6
CONTINUOUS
 62
    7
 10
39.403794
 20
50.679554
 40
30.192353
 50
254.47614
 51
260.13469
  0
ARC
  8
_0-0_1
  6
CONTINUOUS
 62
    7
 10
39.017699
 20
47.723452
 40
28.024377
 50
251.34424
 51
260.10229
  0
ARC
  8
_0-0_1
  6
CONTINUOUS
 62
    7
 10
36.91921
 20
38.406839
 40
19.320762
 50
245.93213
 51
263.01639
  0
ARC
  8
_0-0_1
  6
CONTINUOUS
 62
    7
 10
39.840125
 20
49.575495
 40
31.613268
 50
252.73966
 51
261.72063
  0
ARC
  8
_0-0_1
  6
CONTINUOUS
 62
    7
 10
34.118867
 20
30.6716
 40
11.863998
 50
240.50582
 51
252.03725
  0
ARC
  8
_0-0_1
  6
CONTINUOUS
 62
    7
 10
39.881228
 20
48.253514
 40
31.132513
 50
251.01493
 51
263.25755
  0
ARC
  8
_0-0_1
  6
CONTINUOUS
 62
    7
 10
38.016883
 20
38.26551
 40
21.892761
 50
245.68343
 51
268.15554
  0
ARC
  8
_0-0_1
  6
CONTINUOUS
 62
    7
 10
41.987719
 20
56.679353
 40
41.383755
 50
253.31843
 51
265.26164
  0
ARC
  8
_0-0_1
  6
CONTINUOUS
 62
    7
 10
33.318693
 20
26.27017
 40
9.7751184
 50
236.04465
 51
250.82749
  0
ARC
  8
_0-0_1
  6
CONTINUOUS
 62
    7
 10
32.394059
 20
26.106386
 40
7.7553825
 50
232.93231
 51
250.09105
  0
ARC
  8
_0-0_1
  6
CONTINUOUS
 62
    7
 10
30.875309
 20
22.775603
 40
4.8380478
 50
222.10964
 51
247.21849
  0
ARC
  8
_0-0_1
  6
CONTINUOUS
 62
    7
 10
29.148069
 20
20.045955
 40
2.2828751
 50
203.92922
 51
235.61565
  0
ARC
  8
_0-0_1
  6
CONTINUOUS
 62
    7
 10
40.15903
 20
55.160784
 40
33.926389
 50
257.81989
 51
260.66163
  0
ARC
  8
_0-0_1
  6
CONTINUOUS
 62
    7
 10
36.650185
 20
3.228263
 40
19.117563
 50
102.47843
 51
113.45826
  0
ARC
  8
_0-0_1
  6
CONTINUOUS
 62
    7
 10
42.268018
 20
55.787228
 40
41.342297
 50
251.7445
 51
266.91322
  0
ARC
  8
_0-0_1
  6
CONTINUOUS
 62
    7
 10
42.565352
 20
71.370064
 40
57.824391
 50
257.85007
 51
269.36507
  0
ARC
  8
_0-0_1
  6
CONTINUOUS
 62
    7
 10
44.119155
 20
-48.848872
 40
73.596931
 50
81.602303
 51
95.496556
  0
ARC
  8
_0-0_1
  6
CONTINUOUS
 62
    7
 10
40.740843
 20
-20.798123
 40
45.356602
 50
94.642694
 51
107.2732
  0
ARC
  8
_0-0_1
  6
CONTINUOUS
 62
    7
 10
41.789223
 20
-31.146865
 40
54.93152
 50
97.948908
 51
100.09845
  0
ARC
  8
_0-0_1
  6
CONTINUOUS
 62
    7
 10
50.37237
 20
32.396891
 40
20.51857
 50
225.50844
 51
247.05521
  0
ARC
  8
_0-0_1
  6
CONTINUOUS
 62
    7
 10
50.194491
 20
32.173989
 40
20.378255
 50
222.14725
 51
250.32912
  0
ARC
  8
_0-0_1
  6
CONTINUOUS
 62
    7
 10
32.38944
 20
1.5342962
 40
20.527422
 50
42.105559
 51
68.399308
  0
ARC
  8
_0-0_1
  6
CONTINUOUS
 62
    7
 10
34.754563
 20
8.6824116
 40
13.017802
 50
66.495592
 51
83.457684
  0
ARC
  8
_0-0_1
  6
CONTINUOUS
 62
    7
 10
33.83209
 20
3.7989826
 40
17.490757
 50
42.101985
 51
69.814824
  0
ARC
  8
_0-0_1
  6
CONTINUOUS
 62
    7
 10
34.988099
 20
8.3540054
 40
12.825844
 50
67.639994
 51
81.883516
  0
ARC
  8
_0-0_1
  6
CONTINUOUS
 62
    7
 10
39.828416
 20
21.515751
 40
5.3682291
 50
198.68835
 51
224.39858
  0
ARC
  8
_0-0_1
  6
CONTINUOUS
 62
    7
 10
36.385789
 20
17.582241
 40
3.493647
 50
83.208611
 51
108.47382
  0
ARC
  8
_0-0_1
  6
CONTINUOUS
 62
    7
 10
35.666886
 20
20.026496
 40
0.9520683
 50
114.0588
 51
194.0316
  0
ARC
  8
_0-0_1
  6
CONTINUOUS
 62
    7
 10
38.024411
 20
21.15865
 40
3.9633684
 50
191.68031
 51
222.14102
  0
ARC
  8
_0-0_1
  6
CONTINUOUS
 62
    7
 10
35.936154
 20
18.003714
 40
3.6243002
 50
85.226257
 51
108.82855
  0
ARC
  8
_0-0_1
  6
CONTINUOUS
 62
    7
 10
35.170946
 20
20.480983
 40
1.0353704
 50
112.99626
 51
186.91862
  0
ARC
  8
_0-0_1
  6
CONTINUOUS
 62
    7
 10
37.244842
 20
22.69966
 40
2.7828235
 50
188.48663
 51
207.05113
  0
ARC
  8
_0-0_1
  6
CONTINUOUS
 62
    7
 10
36.433542
 20
21.941831
 40
1.3083505
 50
158.8934
 51
196.80208
  0
ARC
  8
_0-0_1
  6
CONTINUOUS
 62
    7
 10
39.526507
 20
17.066893
 40
5.9821803
 50
107.96064
 51
130.42197
  0
ARC
  8
_0-0_1
  6
CONTINUOUS
 62
    7
 10
48.207503
 20
27.226099
 40
14.912942
 50
246.96986
 51
258.05544
  0
ARC
  8
_0-0_1
  6
CONTINUOUS
 62
    7
 10
46.078544
 20
16.816798
 40
4.2889966
 50
257.10029
 51
283.84593
  0
ARC
  8
_0-0_1
  6
CONTINUOUS
 62
    7
 10
43.347141
 20
12.453389
 40
4.6288613
 50
16.662779
 51
41.584927
  0
ARC
  8
_0-0_1
  6
CONTINUOUS
 62
    7
 10
46.828891
 20
13.585044
 40
0.9726158
 50
286.48912
 51
11.602734
  0
ARC
  8
_0-0_1
  6
CONTINUOUS
 62
    7
 10
47.967815
 20
25.156401
 40
13.023372
 50
249.16095
 51
262.36905
  0
ARC
  8
_0-0_1
  6
CONTINUOUS
 62
    7
 10
46.696442
 20
16.254511
 40
4.0322451
 50
263.47767
 51
286.40295
  0
ARC
  8
_0-0_1
  6
CONTINUOUS
 62
    7
 10
44.080465
 20
12.362328
 40
4.5976639
 50
15.886198
 51
39.679522
  0
ARC
  8
_0-0_1
  6
CONTINUOUS
 62
    7
 10
47.502332
 20
13.363953
 40
1.0326615
 50
288.79933
 51
14.404037
  0
ARC
  8
_0-0_1
  6
CONTINUOUS
 62
    7
 10
32.8102
 20
1.9151847
 40
21.76121
 50
48.208775
 51
74.29433
  0
ARC
  8
_0-0_1
  6
CONTINUOUS
 62
    7
 10
31.17963
 20
-0.905048
 40
25.431938
 50
52.522203
 51
69.823065
  0
ARC
  8
_0-0_1
  6
CONTINUOUS
 62
    7
 10
43.990988
 20
-49.792929
 40
73.699726
 50
88.486407
 51
96.506506
  0
ARC
  8
_0-0_1
  6
CONTINUOUS
 62
    7
 10
43.460951
 20
-27.665716
 40
50.753369
 50
86.449745
 51
102.4497
  0
ARC
  8
_0-0_1
  6
CONTINUOUS
 62
    7
 10
40.198
 20
17.060041
 40
8.6834787
 50
340.05154
 51
355.7481
  0
ARC
  8
_0-0_1
  6
CONTINUOUS
 62
    7
 10
42.062946
 20
11.879078
 40
8.1702413
 50
26.934698
 51
50.02204
  0
ARC
  8
_0-0_1
  6
CONTINUOUS
 62
    7
 10
48.019396
 20
14.947758
 40
1.4703753
 50
328.4488
 51
25.466284
  0
ARC
  8
_0-0_1
  6
CONTINUOUS
 62
    7
 10
48.295293
 20
15.102514
 40
1.3449165
 50
277.4263
 51
316.59596
  0
ARC
  8
_0-0_1
  6
CONTINUOUS
 62
    7
 10
36.557574
 20
5.9426478
 40
16.725756
 50
40.74458
 51
52.869462
  0
ARC
  8
_0-0_1
  6
CONTINUOUS
 62
    7
 10
45.452837
 20
13.582497
 40
5.0000601
 50
14.103664
 51
40.947145
  0
ARC
  8
_0-0_1
  6
CONTINUOUS
 62
    7
 10
49.193902
 20
14.624756
 40
1.1221851
 50
299.23159
 51
9.0306519
  0
ARC
  8
_0-0_1
  6
CONTINUOUS
 62
    7
 10
48.638881
 20
15.707285
 40
2.3383168
 50
267.26219
 51
298.14598
  0
ARC
  8
_0-0_1
  6
CONTINUOUS
 62
    7
 10
45.624431
 20
-21.777644
 40
44.778606
 50
74.160074
 51
88.746761
  0
ARC
  8
_0-0_1
  6
CONTINUOUS
 62
    7
 10
44.852933
 20
-40.640131
 40
64.530331
 50
78.08533
 51
89.036802
  0
ARC
  8
_0-0_1
  6
CONTINUOUS
 62
    7
 10
48.2306
 20
54.427477
 40
33.178112
 50
281.13808
 51
282.02588
  0
ARC
  8
_0-0_1
  6
CONTINUOUS
 62
    7
 10
48.532973
 20
52.030793
 40
31.575642
 50
280.16707
 51
285.27497
  0
ARC
  8
_0-0_1
  6
CONTINUOUS
 62
    7
 10
49.056359
 20
48.332287
 40
28.654438
 50
279.08119
 51
288.6854
  0
ARC
  8
_0-0_1
  6
CONTINUOUS
 62
    7
 10
49.37187
 20
45.331083
 40
26.458613
 50
278.00266
 51
291.73872
  0
ARC
  8
_0-0_1
  6
CONTINUOUS
 62
    7
 10
47.775779
 20
52.716424
 40
34.812571
 50
278.18997
 51
285.80249
  0
ARC
  8
_0-0_1
  6
CONTINUOUS
 62
    7
 10
53.446799
 20
32.239289
 40
13.565529
 50
286.30801
 51
298.46713
  0
ARC
  8
_0-0_1
  6
CONTINUOUS
 62
    7
 10
46.608291
 20
58.865557
 40
41.88027
 50
277.42415
 51
282.04151
  0
ARC
  8
_0-0_1
  6
CONTINUOUS
 62
    7
 10
50.568028
 20
40.314254
 40
22.911075
 50
282.03543
 51
290.32539
  0
ARC
  8
_0-0_1
  6
CONTINUOUS
 62
    7
 10
46.908756
 20
55.744799
 40
39.563834
 50
276.67499
 51
284.15531
  0
ARC
  8
_0-0_1
  6
CONTINUOUS
 62
    7
 10
52.237758
 20
33.89827
 40
17.078331
 50
284.74377
 51
294.95986
  0
ARC
  8
_0-0_1
  6
CONTINUOUS
 62
    7
 10
47.349321
 20
51.608485
 40
36.22492
 50
275.78196
 51
286.7695
  0
ARC
  8
_0-0_1
  6
CONTINUOUS
 62
    7
 10
54.778156
 20
26.515894
 40
10.056853
 50
287.49227
 51
304.07999
  0
ARC
  8
_0-0_1
  6
CONTINUOUS
 62
    7
 10
55.580034
 20
26.598
 40
8.3081861
 50
290.7697
 51
306.186
  0
ARC
  8
_0-0_1
  6
CONTINUOUS
 62
    7
 10
57.851039
 20
22.148849
 40
4.0596662
 50
293.11123
 51
319.34724
  0
ARC
  8
_0-0_1
  6
CONTINUOUS
 62
    7
 10
59.173954
 20
19.983081
 40
2.1829172
 50
304.60005
 51
336.71042
  0
ARC
  8
_0-0_1
  6
CONTINUOUS
 62
    7
 10
47.157271
 20
50.944726
 40
36.406336
 50
275.25673
 51
288.14334
  0
ARC
  8
_0-0_1
  6
CONTINUOUS
 62
    7
 10
45.476454
 20
74.497478
 40
60.933564
 50
274.12562
 51
281.22907
  0
ARC
  8
_0-0_1
  6
CONTINUOUS
 62
    7
 10
31.283091
 20
21.626465
 40
5.4664161
 50
222.50953
 51
248.92411
  0
ARC
  8
_0-0_1
  6
CONTINUOUS
 62
    7
 10
31.214465
 20
15.925757
 40
5.306094
 50
114.19441
 51
139.31101
  0
ARC
  8
_0-0_1
  6
CONTINUOUS
 62
    7
 10
28.249695
 20
18.703033
 40
1.2593168
 50
147.20735
 51
217.71087
  0
ARC
  8
_0-0_1
  6
CONTINUOUS
 62
    7
 10
35.011938
 20
36.668697
 40
22.310702
 50
245.51761
 51
258.05707
  0
ARC
  8
_0-0_1
  6
CONTINUOUS
 62
    7
 10
28.107997
 20
21.431279
 40
5.5823028
 50
220.381
 51
245.19542
  0
ARC
  8
_0-0_1
  6
CONTINUOUS
 62
    7
 10
35.790441
 20
-2.0955729
 40
25.257166
 50
101.76233
 51
111.46723
  0
ARC
  8
_0-0_1
  6
CONTINUOUS
 62
    7
 10
29.605424
 20
13.827917
 40
8.1751241
 50
111.96877
 51
133.93626
  0
ARC
  8
_0-0_1
  6
CONTINUOUS
 62
    7
 10
25.211787
 20
18.711151
 40
1.6256462
 50
141.86908
 51
213.46657
  0
ARC
  8
_0-0_1
  6
CONTINUOUS
 62
    7
 10
30.695648
 20
12.466676
 40
10.613179
 50
108.81257
 51
126.5032
  0
ARC
  8
_0-0_1
  6
CONTINUOUS
 62
    7
 10
25.752191
 20
19.229896
 40
2.2365902
 50
127.7728
 51
169.54691
  0
ARC
  8
_0-0_1
  6
CONTINUOUS
 62
    7
 10
56.595004
 20
22.020097
 40
5.981085
 50
288.51222
 51
318.05114
  0
ARC
  8
_0-0_1
  6
CONTINUOUS
 62
    7
 10
55.489872
 20
13.708733
 40
7.9493344
 50
45.702539
 51
72.753004
  0
ARC
  8
_0-0_1
  6
CONTINUOUS
 62
    7
 10
60.006595
 20
18.708722
 40
1.2436271
 50
326.479
 51
33.67332
  0
ARC
  8
_0-0_1
  6
CONTINUOUS
 62
    7
 10
53.223538
 20
36.070273
 40
21.733693
 50
280.92387
 51
297.24658
  0
ARC
  8
_0-0_1
  6
CONTINUOUS
 62
    7
 10
60.942593
 20
20.435191
 40
4.3096087
 50
301.17811
 51
324.98786
  0
ARC
  8
_0-0_1
  6
CONTINUOUS
 62
    7
 10
53.494125
 20
1.669641
 40
21.349896
 50
64.068305
 51
77.333819
  0
ARC
  8
_0-0_1
  6
CONTINUOUS
 62
    7
 10
60.44922
 20
16.410213
 40
5.0556224
 50
37.950079
 51
61.900745
  0
ARC
  8
_0-0_1
  6
CONTINUOUS
 62
    7
 10
63.288029
 20
18.7136
 40
1.4023382
 50
327.61763
 51
35.067087
  0
ARC
  8
_0-0_1
  6
CONTINUOUS
 62
    7
 10
49.233602
 20
-13.838516
 40
38.215055
 50
73.273232
 51
81.522217
  0
ARC
  8
_0-0_1
  6
CONTINUOUS
 62
    7
 10
56.760104
 20
11.052868
 40
12.210763
 50
54.005785
 51
73.480172
  0
ARC
  8
_0-0_1
  6
CONTINUOUS
 62
    7
 10
62.558665
 20
19.271169
 40
2.1581418
 50
9.1457523
 51
50.327711
  0
ARC
  8
_0-0_1
  6
CONTINUOUS
 62
    7
 10
38.722389
 20
23.044461
 40
11.00224
 50
111.66124
 51
113.25292
  0
ARC
  8
_0-0_1
  6
CONTINUOUS
 62
    7
 10
41.897719
 20
15.050557
 40
19.603705
 50
109.87052
 51
111.66241
  0
TEXT
  8
_0-0_1
 62
    7
 10
39.767773
 20
0.7517578
 40
3
 41
0.9
 50
0
  1
YD1306
  0
ENDSEC
  0
EOF
