  0
SECTION
  2
HEADER
  9
$ACADVER
  1
AC1009
  9
$INSBASE
 10
0
 20
0
 30
0
  9
$EXTMIN
 10
0
 20
0
  9
$EXTMAX
 10
84.1
 20
59.4
  9
$LIMMIN
 10
0
 20
0
  9
$LIMMAX
 10
84.1
 20
59.4
  9
$LTSCALE
 40
0.1
  0
ENDSEC
  0
SECTION
  2
TABLES
  0
TABLE
  2
LTYPE
 70
     9
  0
LTYPE
  2
CONTINUOUS
 70
    64
  3
実線
 72
    65
 73
     0
 40
0.0
  0
LTYPE
  2
DASHED1
 70
    64
  3
--  --  --  --  --  --  --  --  
 72
    65
 73
     2
 40
2.5
 49
1.25
 49
-1.25
  0
LTYPE
  2
DASHED2
 70
    64
  3
----    ----    ----    ----    
 72
    65
 73
     2
 40
5.0
 49
2.5
 49
-2.5
  0
LTYPE
  2
DASHED3
 70
    64
  3
------  ------  ------  ------  
 72
    65
 73
     2
 40
5.0
 49
3.75
 49
-1.25
  0
LTYPE
  2
CENTER1
 70
    64
  3
----- - ----- - ----- - ----- - 
 72
    65
 73
     4
 40
10.0
 49
6.25
 49
-1.25
 49
1.25
 49
-1.25
  0
LTYPE
  2
CENTER2
 70
    64
  3
----------  --  ----------  --  
 72
    65
 73
     4
 40
20.0
 49
12.5
 49
-2.5
 49
2.5
 49
-2.5
  0
LTYPE
  2
PHANTOM1
 70
    64
  3
--- - - --- - - --- - - --- - - 
 72
    65
 73
     6
 40
10.0
 49
3.25
 49
-1.25
 49
1.25
 49
-1.25
 49
1.25
 49
-1.25
  0
LTYPE
  2
PHANTOM2
 70
    64
  3
--------  -  -  --------  -  -  
 72
    65
 73
     6
 40
20.0
 49
10.0
 49
-2.5
 49
1.25
 49
-2.5
 49
1.25
 49
-2.5
  0
LTYPE
  2
DOT
 70
    64
  3
-   -   -   -   -   -   -   -   
 72
    65
 73
     2
 40
2.5
 49
0.625
 49
-1.875
  0
LTYPE
  2
DUMMY
 70
    64
  3
ダミー
 72
    65
 73
     0
 40
0.0
  0
LTYPE
  2
RAND1
 70
    64
  3
----- - ----- - ----- - ----- - 
 72
    65
 73
     4
 40
10.0
 49
6.25
 49
-1.25
 49
1.25
 49
-1.25
  0
LTYPE
  2
RAND2
 70
    64
  3
----------  --  ----------  --  
 72
    65
 73
     4
 40
20.0
 49
12.5
 49
-2.5
 49
2.5
 49
-2.5
  0
LTYPE
  2
RAND3
 70
    64
  3
--- - - --- - - --- - - --- - - 
 72
    65
 73
     6
 40
10.0
 49
3.25
 49
-1.25
 49
1.25
 49
-1.25
 49
1.25
 49
-1.25
  0
LTYPE
  2
RAND4
 70
    64
  3
--------  -  -  --------  -  -  
 72
    65
 73
     6
 40
20.0
 49
10.0
 49
-2.5
 49
1.25
 49
-2.5
 49
1.25
 49
-2.5
  0
LTYPE
  2
RAND5
 70
    64
  3
----- - ----- - ----- - ----- - 
 72
    65
 73
     4
 40
10.0
 49
6.25
 49
-1.25
 49
1.25
 49
-1.25
  0
LTYPE
  2
LONG1
 70
    64
  3
----------  --  ----------  --  
 72
    65
 73
     4
 40
20.0
 49
12.5
 49
-2.5
 49
2.5
 49
-2.5
  0
LTYPE
  2
LONG2
 70
    64
  3
--- - - --- - - --- - - --- - - 
 72
    65
 73
     6
 40
10.0
 49
3.25
 49
-1.25
 49
1.25
 49
-1.25
 49
1.25
 49
-1.25
  0
LTYPE
  2
LONG3
 70
    64
  3
--------  -  -  --------  -  -  
 72
    65
 73
     6
 40
20.0
 49
10.0
 49
-2.5
 49
1.25
 49
-2.5
 49
1.25
 49
-2.5
  0
LTYPE
  2
LONG4
 70
    64
  3
----- - ----- - ----- - ----- - 
 72
    65
 73
     4
 40
10.0
 49
6.25
 49
-1.25
 49
1.25
 49
-1.25
  0
LTYPE
  2
LONG5
 70
    64
  3
----------  --  ----------  --  
 72
    65
 73
     4
 40
20.0
 49
12.5
 49
-2.5
 49
2.5
 49
-2.5
  0
ENDTAB
  0
TABLE
  2
STYLE
  5
3
100
AcDbSymbolTable
 70
     1
  0
STYLE
  5
10
100
AcDbSymbolTableRecord
100
AcDbTextStyleTableRecord
  2
STANDARD
 70
     0
 40
0.0
 41
1.0
 50
0.0
 71
     0
 42
0.2
  3
txt
  4
bigfont.shx
  0
ENDTAB
  0
TABLE
  2
LAYER
 70
    2
  0
LAYER
  2
_0-0_1
 70
   64
 62
    7
  6
CONTINUOUS
  0
LAYER
  2
ADD_LINE
 70
   64
 62
    7
  6
CONTINUOUS
  0
ENDTAB
  0
ENDSEC
  0
SECTION
  2
BLOCKS
  0
ENDSEC
  0
SECTION
  2
ENTITIES
  0
LINE
  8
_0-0_1
  6
CONTINUOUS
 62
    7
 10
30.485342
 20
25.174641
 11
31.055044
 21
20.114522
  0
LINE
  8
_0-0_1
  6
CONTINUOUS
 62
    7
 10
31.055044
 20
20.114522
 11
34.305127
 21
14.451978
  0
LINE
  8
_0-0_1
  6
CONTINUOUS
 62
    7
 10
48.62833
 20
26.985759
 11
51.225737
 21
22.473634
  0
LINE
  8
_0-0_1
  6
CONTINUOUS
 62
    7
 10
45.597707
 20
27.232968
 11
45.597707
 21
27.480992
  0
LINE
  8
_0-0_1
  6
CONTINUOUS
 62
    7
 10
44.036716
 20
27.232968
 11
45.597707
 21
27.232968
  0
LINE
  8
_0-0_1
  6
CONTINUOUS
 62
    7
 10
38.502292
 20
24.53671
 11
40.3471
 21
23.543352
  0
LINE
  8
_0-0_1
  6
CONTINUOUS
 62
    7
 10
38.502292
 20
27.487137
 11
38.502292
 21
24.53671
  0
LINE
  8
_0-0_1
  6
CONTINUOUS
 62
    7
 10
23.981027
 20
37.132721
 11
23.768164
 21
37.50141
  0
LINE
  8
_0-0_1
  6
CONTINUOUS
 62
    7
 10
23.981027
 20
37.132721
 11
25.021003
 21
37.733152
  0
LINE
  8
_0-0_1
  6
CONTINUOUS
 62
    7
 10
20.243814
 20
30.724567
 11
21.40276
 21
30.432071
  0
LINE
  8
_0-0_1
  6
CONTINUOUS
 62
    7
 10
21.40276
 20
30.432071
 11
21.436886
 21
30.569816
  0
LINE
  8
_0-0_1
  6
CONTINUOUS
 62
    7
 10
21.436886
 20
30.569816
 11
20.388327
 21
30.834557
  0
LINE
  8
_0-0_1
  6
CONTINUOUS
 62
    7
 10
19.098241
 20
31.574405
 11
19.100437
 21
30.994591
  0
LINE
  8
_0-0_1
  6
CONTINUOUS
 62
    7
 10
19.100437
 20
31.013133
 11
18.818879
 21
31.084193
  0
LINE
  8
_0-0_1
  6
CONTINUOUS
 62
    7
 10
19.100437
 20
31.159725
 11
18.853664
 21
31.22203
  0
LINE
  8
_0-0_1
  6
CONTINUOUS
 62
    7
 10
18.802497
 20
31.30919
 11
18.940471
 21
31.780014
  0
LINE
  8
_0-0_1
  6
CONTINUOUS
 62
    7
 10
18.665359
 20
31.345676
 11
18.792373
 21
31.819697
  0
LINE
  8
_0-0_1
  6
CONTINUOUS
 62
    7
 10
18.792373
 20
31.819697
 11
18.929445
 21
31.782969
  0
LINE
  8
_0-0_1
  6
CONTINUOUS
 62
    7
 10
21.801825
 20
36.366143
 11
24.893329
 21
38.190177
  0
LINE
  8
_0-0_1
  6
CONTINUOUS
 62
    7
 10
24.893329
 20
38.190177
 11
24.822375
 21
38.313073
  0
LINE
  8
_0-0_1
  6
CONTINUOUS
 62
    7
 10
20.014809
 20
30.550268
 11
25.021003
 21
34.360555
  0
LINE
  8
_0-0_1
  6
CONTINUOUS
 62
    7
 10
18.792373
 20
31.819697
 11
19.63713
 21
34.972374
  0
LINE
  8
_0-0_1
  6
CONTINUOUS
 62
    7
 10
19.63713
 20
34.972374
 11
20.048348
 21
34.862188
  0
LINE
  8
_0-0_1
  6
CONTINUOUS
 62
    7
 10
20.048348
 20
34.862188
 11
21.1755
 21
35.512949
  0
LINE
  8
_0-0_1
  6
CONTINUOUS
 62
    7
 10
21.1755
 20
35.512949
 11
21.837346
 21
35.335608
  0
LINE
  8
_0-0_1
  6
CONTINUOUS
 62
    7
 10
22.156596
 20
35.751662
 11
21.730871
 21
36.489039
  0
LINE
  8
_0-0_1
  6
CONTINUOUS
 62
    7
 10
21.730871
 20
36.489039
 11
25.021003
 21
38.434663
  0
LINE
  8
_0-0_1
  6
CONTINUOUS
 62
    7
 10
40.671607
 20
37.201233
 11
38.502292
 21
37.085175
  0
LINE
  8
_0-0_1
  6
CONTINUOUS
 62
    7
 10
38.502292
 20
37.085175
 11
38.502292
 21
38.504258
  0
LINE
  8
_0-0_1
  6
CONTINUOUS
 62
    7
 10
38.502292
 20
38.504258
 11
40.629233
 21
38.61905
  0
LINE
  8
_0-0_1
  6
CONTINUOUS
 62
    7
 10
60.331835
 20
37.50141
 11
60.118972
 21
37.132721
  0
LINE
  8
_0-0_1
  6
CONTINUOUS
 62
    7
 10
59.078996
 20
37.733152
 11
60.118972
 21
37.132721
  0
LINE
  8
_0-0_1
  6
CONTINUOUS
 62
    7
 10
62.697239
 20
30.432071
 11
63.856185
 21
30.724567
  0
LINE
  8
_0-0_1
  6
CONTINUOUS
 62
    7
 10
62.663113
 20
30.569816
 11
62.697239
 21
30.432071
  0
LINE
  8
_0-0_1
  6
CONTINUOUS
 62
    7
 10
63.711672
 20
30.834557
 11
62.663113
 21
30.569816
  0
LINE
  8
_0-0_1
  6
CONTINUOUS
 62
    7
 10
64.999562
 20
30.994591
 11
65.001758
 21
31.574405
  0
LINE
  8
_0-0_1
  6
CONTINUOUS
 62
    7
 10
65.28112
 20
31.084193
 11
64.999562
 21
31.013133
  0
LINE
  8
_0-0_1
  6
CONTINUOUS
 62
    7
 10
65.246335
 20
31.22203
 11
64.999562
 21
31.159725
  0
LINE
  8
_0-0_1
  6
CONTINUOUS
 62
    7
 10
65.159528
 20
31.780014
 11
65.297502
 21
31.30919
  0
LINE
  8
_0-0_1
  6
CONTINUOUS
 62
    7
 10
65.307626
 20
31.819697
 11
65.43464
 21
31.345676
  0
LINE
  8
_0-0_1
  6
CONTINUOUS
 62
    7
 10
65.170554
 20
31.782969
 11
65.307626
 21
31.819697
  0
LINE
  8
_0-0_1
  6
CONTINUOUS
 62
    7
 10
59.20667
 20
38.190177
 11
62.298174
 21
36.366143
  0
LINE
  8
_0-0_1
  6
CONTINUOUS
 62
    7
 10
59.277624
 20
38.313073
 11
59.20667
 21
38.190177
  0
LINE
  8
_0-0_1
  6
CONTINUOUS
 62
    7
 10
59.078996
 20
34.360555
 11
64.08519
 21
30.550268
  0
LINE
  8
_0-0_1
  6
CONTINUOUS
 62
    7
 10
64.462869
 20
34.972374
 11
65.307626
 21
31.819697
  0
LINE
  8
_0-0_1
  6
CONTINUOUS
 62
    7
 10
64.051651
 20
34.862188
 11
64.462869
 21
34.972374
  0
LINE
  8
_0-0_1
  6
CONTINUOUS
 62
    7
 10
62.924499
 20
35.512949
 11
64.051651
 21
34.862188
  0
LINE
  8
_0-0_1
  6
CONTINUOUS
 62
    7
 10
62.262653
 20
35.335608
 11
62.924499
 21
35.512949
  0
LINE
  8
_0-0_1
  6
CONTINUOUS
 62
    7
 10
62.369128
 20
36.489039
 11
61.943403
 21
35.751662
  0
LINE
  8
_0-0_1
  6
CONTINUOUS
 62
    7
 10
59.078996
 20
38.434663
 11
62.369128
 21
36.489039
  0
LINE
  8
_0-0_1
  6
CONTINUOUS
 62
    7
 10
45.597707
 20
37.085175
 11
43.428392
 21
37.201233
  0
LINE
  8
_0-0_1
  6
CONTINUOUS
 62
    7
 10
45.597707
 20
38.504258
 11
45.597707
 21
37.085175
  0
LINE
  8
_0-0_1
  6
CONTINUOUS
 62
    7
 10
43.470766
 20
38.61905
 11
45.597707
 21
38.504258
  0
LINE
  8
_0-0_1
  6
CONTINUOUS
 62
    7
 10
25.274942
 20
52.338965
 11
25.021003
 21
50.330393
  0
LINE
  8
_0-0_1
  6
CONTINUOUS
 62
    7
 10
59.078996
 20
50.330393
 11
58.825057
 21
52.338965
  0
LINE
  8
_0-0_1
  6
CONTINUOUS
 62
    7
 10
59.078996
 20
27.775982
 11
59.078996
 21
50.330393
  0
LINE
  8
_0-0_1
  6
CONTINUOUS
 62
    7
 10
25.021003
 20
50.330393
 11
25.021003
 21
27.775982
  0
ARC
  8
_0-0_1
  6
CONTINUOUS
 62
    7
 10
47.078982
 20
7.131348
 40
15.820367
 50
117.40851
 51
140.30947
  0
ARC
  8
_0-0_1
  6
CONTINUOUS
 62
    7
 10
50.215658
 20
2.5493385
 40
21.342631
 50
99.839542
 51
119.22178
  0
ARC
  8
_0-0_1
  6
CONTINUOUS
 62
    7
 10
38.314858
 20
14.620091
 40
4.2969024
 50
142.51687
 51
166.16211
  0
ARC
  8
_0-0_1
  6
CONTINUOUS
 62
    7
 10
35.827371
 20
15.266346
 40
1.7273491
 50
167.24193
 51
207.33923
  0
ARC
  8
_0-0_1
  6
CONTINUOUS
 62
    7
 10
48.058257
 20
15.81268
 40
7.9069688
 50
78.185991
 51
100.86059
  0
ARC
  8
_0-0_1
  6
CONTINUOUS
 62
    7
 10
49.401522
 20
21.524945
 40
2.0458573
 50
29.418352
 51
82.258879
  0
ARC
  8
_0-0_1
  6
CONTINUOUS
 62
    7
 10
49.865405
 20
21.732609
 40
1.5029219
 50
338.59641
 51
76.883925
  0
ARC
  8
_0-0_1
  6
CONTINUOUS
 62
    7
 10
40.3471
 20
27.232968
 40
0.8514498
 50
155.62697
 51
30.200055
  0
ARC
  8
_0-0_1
  6
CONTINUOUS
 62
    7
 10
40.3471
 20
27.402782
 40
0.4390302
 50
151.70625
 51
34.085885
  0
ARC
  8
_0-0_1
  6
CONTINUOUS
 62
    7
 10
40.3471
 20
27.232968
 40
3.6896158
 50
270
 51
0
  0
ARC
  8
_0-0_1
  6
CONTINUOUS
 62
    7
 10
45.647926
 20
10.338363
 40
18.630166
 50
113.16052
 51
136.84648
  0
ARC
  8
_0-0_1
  6
CONTINUOUS
 62
    7
 10
36.072508
 20
19.576753
 40
5.3294284
 50
138.89457
 51
159.38446
  0
ARC
  8
_0-0_1
  6
CONTINUOUS
 62
    7
 10
32.881083
 20
20.744211
 40
1.9315612
 50
158.46526
 51
199.0262
  0
ARC
  8
_0-0_1
  6
CONTINUOUS
 62
    7
 10
50.057928
 20
2.7258985
 40
20.843656
 50
95.690752
 51
131.46443
  0
ARC
  8
_0-0_1
  6
CONTINUOUS
 62
    7
 10
48.37443
 20
17.399396
 40
6.0795294
 50
72.461703
 51
93.615149
  0
ARC
  8
_0-0_1
  6
CONTINUOUS
 62
    7
 10
40.375091
 20
13.44352
 40
6.4026676
 50
130.03902
 51
162.30316
  0
ARC
  8
_0-0_1
  6
CONTINUOUS
 62
    7
 10
44.498924
 20
23.87117
 40
7.2798015
 50
306.51855
 51
338.33941
  0
ARC
  8
_0-0_1
  6
CONTINUOUS
 62
    7
 10
37.149492
 20
18.557718
 40
5.2097363
 50
244.59553
 51
277.99676
  0
ARC
  8
_0-0_1
  6
CONTINUOUS
 62
    7
 10
35.444016
 20
14.973577
 40
1.2405193
 50
160.39536
 51
244.73149
  0
ARC
  8
_0-0_1
  6
CONTINUOUS
 62
    7
 10
46.552512
 20
20.689348
 40
3.1279224
 50
29.831426
 51
62.618399
  0
ARC
  8
_0-0_1
  6
CONTINUOUS
 62
    7
 10
39.007141
 20
16.668624
 40
3.2217108
 50
148.63588
 51
203.85902
  0
ARC
  8
_0-0_1
  6
CONTINUOUS
 62
    7
 10
44.789577
 20
20.717504
 40
4.85862
 50
326.2848
 51
4.8580009
  0
ARC
  8
_0-0_1
  6
CONTINUOUS
 62
    7
 10
39.588854
 20
24.007857
 40
11.011996
 50
286.79556
 51
327.06424
  0
ARC
  8
_0-0_1
  6
CONTINUOUS
 62
    7
 10
40.360948
 20
19.216651
 40
6.2355516
 50
233.51165
 51
292.73557
  0
ARC
  8
_0-0_1
  6
CONTINUOUS
 62
    7
 10
50.229965
 20
5.4412233
 40
17.979395
 50
106.93748
 51
122.34058
  0
ARC
  8
_0-0_1
  6
CONTINUOUS
 62
    7
 10
47.209373
 20
16.112764
 40
6.8942592
 50
82.232009
 51
108.76074
  0
ARC
  8
_0-0_1
  6
CONTINUOUS
 62
    7
 10
46.207254
 20
10.62696
 40
11.46313
 50
119.21709
 51
149.82092
  0
ARC
  8
_0-0_1
  6
CONTINUOUS
 62
    7
 10
47.792086
 20
21.138526
 40
1.8386828
 50
359.70204
 51
79.054208
  0
ARC
  8
_0-0_1
  6
CONTINUOUS
 62
    7
 10
37.776236
 20
15.507747
 40
1.7213782
 50
149.18613
 51
229.26454
  0
ARC
  8
_0-0_1
  6
CONTINUOUS
 62
    7
 10
18.870968
 20
31.290583
 40
0.2128624
 50
165
 51
255.83545
  0
ARC
  8
_0-0_1
  6
CONTINUOUS
 62
    7
 10
18.871033
 20
31.290826
 40
0.0709541
 50
165
 51
255.83004
  0
ARC
  8
_0-0_1
  6
CONTINUOUS
 62
    7
 10
18.88036
 20
31.56842
 40
0.220092
 50
0.6741258
 51
77.113365
  0
ARC
  8
_0-0_1
  6
CONTINUOUS
 62
    7
 10
21.910803
 20
35.609754
 40
0.2838166
 50
255
 51
30
  0
ARC
  8
_0-0_1
  6
CONTINUOUS
 62
    7
 10
19.668079
 20
30.999737
 40
0.5676658
 50
180.51946
 51
307.64733
  0
ARC
  8
_0-0_1
  6
CONTINUOUS
 62
    7
 10
40.629233
 20
37.909508
 40
0.7095415
 50
273.42368
 51
90
  0
ARC
  8
_0-0_1
  6
CONTINUOUS
 62
    7
 10
39.434606
 20
37.857536
 40
0.7088845
 50
271.32136
 51
90
  0
ARC
  8
_0-0_1
  6
CONTINUOUS
 62
    7
 10
65.229031
 20
31.290583
 40
0.2128624
 50
284.16454
 51
15
  0
ARC
  8
_0-0_1
  6
CONTINUOUS
 62
    7
 10
65.228966
 20
31.290826
 40
0.0709541
 50
284.16995
 51
15
  0
ARC
  8
_0-0_1
  6
CONTINUOUS
 62
    7
 10
65.219639
 20
31.56842
 40
0.220092
 50
102.88663
 51
179.32587
  0
ARC
  8
_0-0_1
  6
CONTINUOUS
 62
    7
 10
62.189196
 20
35.609754
 40
0.2838166
 50
150
 51
285
  0
ARC
  8
_0-0_1
  6
CONTINUOUS
 62
    7
 10
64.43192
 20
30.999737
 40
0.5676658
 50
232.35266
 51
359.48053
  0
ARC
  8
_0-0_1
  6
CONTINUOUS
 62
    7
 10
43.470766
 20
37.909508
 40
0.7095415
 50
90
 51
266.57631
  0
ARC
  8
_0-0_1
  6
CONTINUOUS
 62
    7
 10
44.665393
 20
37.857536
 40
0.7088845
 50
90
 51
268.67863
  0
ARC
  8
_0-0_1
  6
CONTINUOUS
 62
    7
 10
42.05
 20
12.911213
 40
45.224174
 50
82.596109
 51
97.40389
  0
ARC
  8
_0-0_1
  6
CONTINUOUS
 62
    7
 10
42.05
 20
10.972514
 40
45.568067
 50
83.005266
 51
96.994733
  0
ARC
  8
_0-0_1
  6
CONTINUOUS
 62
    7
 10
39.821324
 20
28.356132
 40
29.621649
 50
96.978707
 51
108.48466
  0
ARC
  8
_0-0_1
  6
CONTINUOUS
 62
    7
 10
40.18257
 20
24.884861
 40
31.532255
 50
96.705253
 51
107.79497
  0
ARC
  8
_0-0_1
  6
CONTINUOUS
 62
    7
 10
34.510321
 20
42.019008
 40
13.485367
 50
107.09617
 51
126.2304
  0
ARC
  8
_0-0_1
  6
CONTINUOUS
 62
    7
 10
33.845595
 20
45.209853
 40
11.747295
 50
106.90447
 51
128.17749
  0
ARC
  8
_0-0_1
  6
CONTINUOUS
 62
    7
 10
28.412555
 20
51.847302
 40
3.1759007
 50
125.13971
 51
171.09418
  0
ARC
  8
_0-0_1
  6
CONTINUOUS
 62
    7
 10
28.451549
 20
50.032808
 40
3.4434284
 50
123.71939
 51
175.04226
  0
ARC
  8
_0-0_1
  6
CONTINUOUS
 62
    7
 10
42.81376
 20
52.384651
 40
38.245195
 50
272.54291
 51
287.8315
  0
ARC
  8
_0-0_1
  6
CONTINUOUS
 62
    7
 10
39.976651
 20
47.139531
 40
32.852991
 50
251.54155
 51
259.68516
  0
ARC
  8
_0-0_1
  6
CONTINUOUS
 62
    7
 10
36.555159
 20
28.024409
 40
11.573907
 50
237.9019
 51
251.00078
  0
ARC
  8
_0-0_1
  6
CONTINUOUS
 62
    7
 10
44.817096
 20
34.014089
 40
18.118438
 50
277.60623
 51
299.33963
  0
ARC
  8
_0-0_1
  6
CONTINUOUS
 62
    7
 10
42.031583
 20
-4.2691004
 40
31.943439
 50
78.081896
 51
102.56029
  0
ARC
  8
_0-0_1
  6
CONTINUOUS
 62
    7
 10
38.693754
 20
10.608236
 40
16.696299
 50
102.48266
 51
118.23965
  0
ARC
  8
_0-0_1
  6
CONTINUOUS
 62
    7
 10
45.1253
 20
9.7721988
 40
17.566384
 50
62.243323
 51
78.497152
  0
ARC
  8
_0-0_1
  6
CONTINUOUS
 62
    7
 10
42.05
 20
-11.712809
 40
42.634063
 50
72.969856
 51
107.03014
  0
ARC
  8
_0-0_1
  6
CONTINUOUS
 62
    7
 10
42.05
 20
-11.790996
 40
43.641038
 50
75.224712
 51
104.77528
  0
ARC
  8
_0-0_1
  6
CONTINUOUS
 62
    7
 10
36.452787
 20
9.8912543
 40
21.248618
 50
105.09202
 51
120.8545
  0
ARC
  8
_0-0_1
  6
CONTINUOUS
 62
    7
 10
34.704721
 20
12.777203
 40
17.067324
 50
107.5314
 51
126.27863
  0
ARC
  8
_0-0_1
  6
CONTINUOUS
 62
    7
 10
34.423175
 20
31.688848
 40
16.443163
 50
233.13632
 51
252.8512
  0
ARC
  8
_0-0_1
  6
CONTINUOUS
 62
    7
 10
33.180931
 20
23.309432
 40
5.7974586
 50
210.83344
 51
241.39317
  0
ARC
  8
_0-0_1
  6
CONTINUOUS
 62
    7
 10
33.709893
 20
19.482906
 40
6.5225716
 50
116.55706
 51
147.45669
  0
ARC
  8
_0-0_1
  6
CONTINUOUS
 62
    7
 10
29.850456
 20
20.817757
 40
8.48269
 50
120.42117
 51
145.53355
  0
ARC
  8
_0-0_1
  6
CONTINUOUS
 62
    7
 10
28.327201
 20
23.740821
 40
6.4280944
 50
204.4125
 51
234.10838
  0
ARC
  8
_0-0_1
  6
CONTINUOUS
 62
    7
 10
28.518025
 20
21.164134
 40
6.6455083
 50
126.06529
 51
156.6139
  0
ARC
  8
_0-0_1
  6
CONTINUOUS
 62
    7
 10
26.145538
 20
23.420608
 40
3.9554338
 50
146.24682
 51
186.3702
  0
ARC
  8
_0-0_1
  6
CONTINUOUS
 62
    7
 10
25.887839
 20
22.513118
 40
3.7010407
 50
159.62137
 51
202.71333
  0
ARC
  8
_0-0_1
  6
CONTINUOUS
 62
    7
 10
30.583379
 20
21.657124
 40
2.7215654
 50
150.63654
 51
208.99287
  0
ARC
  8
_0-0_1
  6
CONTINUOUS
 62
    7
 10
47.647212
 20
9.8912543
 40
21.248618
 50
59.145495
 51
74.907973
  0
ARC
  8
_0-0_1
  6
CONTINUOUS
 62
    7
 10
49.395278
 20
12.777203
 40
17.067324
 50
53.721361
 51
72.468598
  0
ARC
  8
_0-0_1
  6
CONTINUOUS
 62
    7
 10
49.676824
 20
31.688848
 40
16.443163
 50
287.14879
 51
306.86367
  0
ARC
  8
_0-0_1
  6
CONTINUOUS
 62
    7
 10
50.919068
 20
23.309432
 40
5.7974586
 50
298.60682
 51
329.16655
  0
ARC
  8
_0-0_1
  6
CONTINUOUS
 62
    7
 10
50.390106
 20
19.482906
 40
6.5225716
 50
32.5433
 51
63.442936
  0
ARC
  8
_0-0_1
  6
CONTINUOUS
 62
    7
 10
54.249543
 20
20.817757
 40
8.48269
 50
34.466446
 51
59.578827
  0
ARC
  8
_0-0_1
  6
CONTINUOUS
 62
    7
 10
55.772798
 20
23.740821
 40
6.4280944
 50
305.89161
 51
335.58749
  0
ARC
  8
_0-0_1
  6
CONTINUOUS
 62
    7
 10
55.581974
 20
21.164134
 40
6.6455083
 50
23.386091
 51
53.934704
  0
ARC
  8
_0-0_1
  6
CONTINUOUS
 62
    7
 10
57.954461
 20
23.420608
 40
3.9554338
 50
353.62979
 51
33.753175
  0
ARC
  8
_0-0_1
  6
CONTINUOUS
 62
    7
 10
58.21216
 20
22.513118
 40
3.7010407
 50
337.28666
 51
20.378621
  0
ARC
  8
_0-0_1
  6
CONTINUOUS
 62
    7
 10
53.51662
 20
21.657124
 40
2.7215654
 50
331.00712
 51
29.363455
  0
ARC
  8
_0-0_1
  6
CONTINUOUS
 62
    7
 10
44.278675
 20
28.356132
 40
29.621649
 50
71.51533
 51
83.021292
  0
ARC
  8
_0-0_1
  6
CONTINUOUS
 62
    7
 10
43.917429
 20
24.884861
 40
31.532255
 50
72.205023
 51
83.294746
  0
ARC
  8
_0-0_1
  6
CONTINUOUS
 62
    7
 10
49.589678
 20
42.019008
 40
13.485367
 50
53.769594
 51
72.903827
  0
ARC
  8
_0-0_1
  6
CONTINUOUS
 62
    7
 10
50.254404
 20
45.209853
 40
11.747295
 50
51.8225
 51
73.095529
  0
ARC
  8
_0-0_1
  6
CONTINUOUS
 62
    7
 10
55.687444
 20
51.847302
 40
3.1759007
 50
8.9058129
 51
54.860289
  0
ARC
  8
_0-0_1
  6
CONTINUOUS
 62
    7
 10
55.64845
 20
50.032808
 40
3.4434284
 50
4.9577384
 51
56.280601
  0
CIRCLE
  8
_0-0_1
  6
CONTINUOUS
 62
    7
 10
24.076087
 20
35.548988
 40
0.5676332
  0
CIRCLE
  8
_0-0_1
  6
CONTINUOUS
 62
    7
 10
60.023912
 20
35.548988
 40
0.5676332
  0
TEXT
  8
_0-0_1
 62
    7
 10
38.20625
 20
0.9919921
 40
3
 41
0.9
 50
0
  1
YD1307
  0
ENDSEC
  0
EOF
