  0
SECTION
  2
HEADER
  9
$ACADVER
  1
AC1009
  9
$INSBASE
 10
0
 20
0
 30
0
  9
$EXTMIN
 10
0
 20
0
  9
$EXTMAX
 10
84.1
 20
59.4
  9
$LIMMIN
 10
0
 20
0
  9
$LIMMAX
 10
84.1
 20
59.4
  9
$LTSCALE
 40
0.1
  0
ENDSEC
  0
SECTION
  2
TABLES
  0
TABLE
  2
LTYPE
 70
     9
  0
LTYPE
  2
CONTINUOUS
 70
    64
  3
実線
 72
    65
 73
     0
 40
0.0
  0
LTYPE
  2
DASHED1
 70
    64
  3
--  --  --  --  --  --  --  --  
 72
    65
 73
     2
 40
2.5
 49
1.25
 49
-1.25
  0
LTYPE
  2
DASHED2
 70
    64
  3
----    ----    ----    ----    
 72
    65
 73
     2
 40
5.0
 49
2.5
 49
-2.5
  0
LTYPE
  2
DASHED3
 70
    64
  3
------  ------  ------  ------  
 72
    65
 73
     2
 40
5.0
 49
3.75
 49
-1.25
  0
LTYPE
  2
CENTER1
 70
    64
  3
----- - ----- - ----- - ----- - 
 72
    65
 73
     4
 40
10.0
 49
6.25
 49
-1.25
 49
1.25
 49
-1.25
  0
LTYPE
  2
CENTER2
 70
    64
  3
----------  --  ----------  --  
 72
    65
 73
     4
 40
20.0
 49
12.5
 49
-2.5
 49
2.5
 49
-2.5
  0
LTYPE
  2
PHANTOM1
 70
    64
  3
--- - - --- - - --- - - --- - - 
 72
    65
 73
     6
 40
10.0
 49
3.25
 49
-1.25
 49
1.25
 49
-1.25
 49
1.25
 49
-1.25
  0
LTYPE
  2
PHANTOM2
 70
    64
  3
--------  -  -  --------  -  -  
 72
    65
 73
     6
 40
20.0
 49
10.0
 49
-2.5
 49
1.25
 49
-2.5
 49
1.25
 49
-2.5
  0
LTYPE
  2
DOT
 70
    64
  3
-   -   -   -   -   -   -   -   
 72
    65
 73
     2
 40
2.5
 49
0.625
 49
-1.875
  0
LTYPE
  2
DUMMY
 70
    64
  3
ダミー
 72
    65
 73
     0
 40
0.0
  0
LTYPE
  2
RAND1
 70
    64
  3
----- - ----- - ----- - ----- - 
 72
    65
 73
     4
 40
10.0
 49
6.25
 49
-1.25
 49
1.25
 49
-1.25
  0
LTYPE
  2
RAND2
 70
    64
  3
----------  --  ----------  --  
 72
    65
 73
     4
 40
20.0
 49
12.5
 49
-2.5
 49
2.5
 49
-2.5
  0
LTYPE
  2
RAND3
 70
    64
  3
--- - - --- - - --- - - --- - - 
 72
    65
 73
     6
 40
10.0
 49
3.25
 49
-1.25
 49
1.25
 49
-1.25
 49
1.25
 49
-1.25
  0
LTYPE
  2
RAND4
 70
    64
  3
--------  -  -  --------  -  -  
 72
    65
 73
     6
 40
20.0
 49
10.0
 49
-2.5
 49
1.25
 49
-2.5
 49
1.25
 49
-2.5
  0
LTYPE
  2
RAND5
 70
    64
  3
----- - ----- - ----- - ----- - 
 72
    65
 73
     4
 40
10.0
 49
6.25
 49
-1.25
 49
1.25
 49
-1.25
  0
LTYPE
  2
LONG1
 70
    64
  3
----------  --  ----------  --  
 72
    65
 73
     4
 40
20.0
 49
12.5
 49
-2.5
 49
2.5
 49
-2.5
  0
LTYPE
  2
LONG2
 70
    64
  3
--- - - --- - - --- - - --- - - 
 72
    65
 73
     6
 40
10.0
 49
3.25
 49
-1.25
 49
1.25
 49
-1.25
 49
1.25
 49
-1.25
  0
LTYPE
  2
LONG3
 70
    64
  3
--------  -  -  --------  -  -  
 72
    65
 73
     6
 40
20.0
 49
10.0
 49
-2.5
 49
1.25
 49
-2.5
 49
1.25
 49
-2.5
  0
LTYPE
  2
LONG4
 70
    64
  3
----- - ----- - ----- - ----- - 
 72
    65
 73
     4
 40
10.0
 49
6.25
 49
-1.25
 49
1.25
 49
-1.25
  0
LTYPE
  2
LONG5
 70
    64
  3
----------  --  ----------  --  
 72
    65
 73
     4
 40
20.0
 49
12.5
 49
-2.5
 49
2.5
 49
-2.5
  0
ENDTAB
  0
TABLE
  2
STYLE
  5
3
100
AcDbSymbolTable
 70
     1
  0
STYLE
  5
10
100
AcDbSymbolTableRecord
100
AcDbTextStyleTableRecord
  2
STANDARD
 70
     0
 40
0.0
 41
1.0
 50
0.0
 71
     0
 42
0.2
  3
txt
  4
bigfont.shx
  0
ENDTAB
  0
TABLE
  2
LAYER
 70
    6
  0
LAYER
  2
_0-0_0-E
 70
   64
 62
    7
  6
CONTINUOUS
  0
LAYER
  2
_0-1_0-0
 70
   64
 62
    7
  6
CONTINUOUS
  0
LAYER
  2
_0-2_0-2
 70
   64
 62
    7
  6
CONTINUOUS
  0
LAYER
  2
_0-3_0-4
 70
   64
 62
    7
  6
CONTINUOUS
  0
LAYER
  2
_0-4_1
 70
   64
 62
    7
  6
CONTINUOUS
  0
LAYER
  2
ADD_LINE
 70
   64
 62
    7
  6
CONTINUOUS
  0
ENDTAB
  0
ENDSEC
  0
SECTION
  2
BLOCKS
  0
ENDSEC
  0
SECTION
  2
ENTITIES
  0
LINE
  8
_0-3_0-4
  6
CONTINUOUS
 62
    7
 10
33.661958
 20
25.883264
 11
28.814862
 21
27.307681
  0
LINE
  8
_0-3_0-4
  6
CONTINUOUS
 62
    7
 10
44.748099
 20
24.150101
 11
42.118929
 21
23.398013
  0
LINE
  8
_0-4_1
  6
CONTINUOUS
 62
    7
 10
61.07824
 20
28.743741
 11
61.07824
 21
39.684183
  0
LINE
  8
_0-4_1
  6
CONTINUOUS
 62
    7
 10
61.07824
 20
39.684183
 11
61.67824
 21
39.422087
  0
LINE
  8
_0-2_0-2
  6
CONTINUOUS
 62
    7
 10
42.012341
 20
47.388559
 11
22.249073
 21
38.90337
  0
LINE
  8
_0-4_1
  6
CONTINUOUS
 62
    7
 10
43.012341
 20
46.951731
 11
43.012341
 21
35.510187
  0
LINE
  8
_0-4_1
  6
CONTINUOUS
 62
    7
 10
42.012341
 20
47.388559
 11
43.012341
 21
46.951731
  0
LINE
  8
_0-2_0-2
  6
CONTINUOUS
 62
    7
 10
42.012341
 20
52.741643
 11
22.249073
 21
44.256455
  0
LINE
  8
_0-3_0-4
  6
CONTINUOUS
 62
    7
 10
48.282294
 20
27.424599
 11
48.282294
 21
29.273913
  0
LINE
  8
_0-3_0-4
  6
CONTINUOUS
 62
    7
 10
35.958154
 20
27.424599
 11
35.958154
 21
29.273913
  0
LINE
  8
_0-3_0-4
  6
CONTINUOUS
 62
    7
 10
50.923163
 20
27.424599
 11
50.923163
 21
28.694675
  0
LINE
  8
_0-3_0-4
  6
CONTINUOUS
 62
    7
 10
33.317294
 20
28.73548
 11
33.317294
 21
27.424599
  0
LINE
  8
_0-4_1
  6
CONTINUOUS
 62
    7
 10
29.029748
 20
35.125641
 11
29.818743
 21
34.492725
  0
LINE
  8
_0-4_1
  6
CONTINUOUS
 62
    7
 10
30.112764
 20
34.602727
 11
29.323751
 21
35.235649
  0
LINE
  8
_0-4_1
  6
CONTINUOUS
 62
    7
 10
29.029748
 20
34.197514
 11
30.476825
 21
34.738921
  0
LINE
  8
_0-4_1
  6
CONTINUOUS
 62
    7
 10
29.029748
 20
35.125641
 11
29.029748
 21
34.197514
  0
LINE
  8
_0-4_1
  6
CONTINUOUS
 62
    7
 10
30.476825
 20
35.667018
 11
29.029748
 21
35.125641
  0
LINE
  8
_0-4_1
  6
CONTINUOUS
 62
    7
 10
35.231627
 20
37.445896
 11
34.4426
 21
36.222579
  0
LINE
  8
_0-4_1
  6
CONTINUOUS
 62
    7
 10
34.148574
 20
36.112574
 11
34.937592
 21
37.335877
  0
LINE
  8
_0-4_1
  6
CONTINUOUS
 62
    7
 10
35.231627
 20
36.517787
 11
33.784509
 21
35.976386
  0
LINE
  8
_0-4_1
  6
CONTINUOUS
 62
    7
 10
35.231627
 20
37.445896
 11
35.231627
 21
36.517787
  0
LINE
  8
_0-4_1
  6
CONTINUOUS
 62
    7
 10
33.840151
 20
36.925298
 11
35.231627
 21
37.445896
  0
LINE
  8
_0-2_0-2
  6
CONTINUOUS
 62
    7
 10
49.750504
 20
45.457979
 11
49.750504
 21
47.159458
  0
LINE
  8
_0-2_0-2
  6
CONTINUOUS
 62
    7
 10
49.750504
 20
45.457979
 11
48.354982
 21
46.067581
  0
LINE
  8
_0-2_0-2
  6
CONTINUOUS
 62
    7
 10
48.354982
 20
33.847233
 11
48.354982
 21
46.067581
  0
LINE
  8
_0-2_0-2
  6
CONTINUOUS
 62
    7
 10
47.011287
 20
34.349928
 11
48.354982
 21
33.847233
  0
LINE
  8
_0-2_0-2
  6
CONTINUOUS
 62
    7
 10
47.011287
 20
34.349928
 11
47.011287
 21
46.65459
  0
LINE
  8
_0-2_0-2
  6
CONTINUOUS
 62
    7
 10
45.615849
 20
47.264203
 11
47.011287
 21
46.65459
  0
LINE
  8
_0-2_0-2
  6
CONTINUOUS
 62
    7
 10
45.615849
 20
47.264203
 11
45.615849
 21
48.96573
  0
LINE
  8
_0-2_0-2
  6
CONTINUOUS
 62
    7
 10
45.615849
 20
48.96573
 11
49.750504
 21
47.159458
  0
LINE
  8
_0-3_0-4
  6
CONTINUOUS
 62
    7
 10
55.555071
 20
27.24149
 11
50.452807
 21
25.781962
  0
LINE
  8
_0-3_0-4
  6
CONTINUOUS
 62
    7
 10
42.118929
 20
23.398013
 11
39.567325
 21
24.147853
  0
LINE
  8
_0-2_0-2
  6
CONTINUOUS
 62
    7
 10
22.249073
 20
44.256455
 11
22.249073
 21
28.551164
  0
LINE
  8
_0-3_0-4
  6
CONTINUOUS
 62
    7
 10
41.993801
 20
32.129848
 11
25.399343
 21
26.057945
  0
LINE
  8
_0-3_0-4
  6
CONTINUOUS
 62
    7
 10
17.877241
 20
26.326227
 11
17.877241
 21
26.925845
  0
LINE
  8
_0-1_0-0
  6
CONTINUOUS
 62
    7
 10
41.993801
 20
35.891674
 11
17.877241
 21
26.925845
  0
LINE
  8
_0-2_0-2
  6
CONTINUOUS
 62
    7
 10
42.012341
 20
52.741643
 11
42.012341
 21
35.88474
  0
LINE
  8
_0-2_0-2
  6
CONTINUOUS
 62
    7
 10
61.67824
 20
44.295257
 11
42.012341
 21
52.741643
  0
LINE
  8
_0-2_0-2
  6
CONTINUOUS
 62
    7
 10
61.67824
 20
44.295257
 11
61.67824
 21
28.519015
  0
LINE
  8
_0-1_0-0
  6
CONTINUOUS
 62
    7
 10
42.118929
 20
21.116564
 11
58.906242
 21
26.033512
  0
LINE
  8
_0-1_0-0
  6
CONTINUOUS
 62
    7
 10
66.222758
 20
26.281706
 11
42.118929
 21
19.289911
  0
LINE
  8
_0-1_0-0
  6
CONTINUOUS
 62
    7
 10
66.222758
 20
26.281706
 11
65.582491
 21
26.281706
  0
LINE
  8
_0-3_0-4
  6
CONTINUOUS
 62
    7
 10
25.399343
 20
26.057945
 11
18.526286
 21
26.329265
  0
LINE
  8
_0-1_0-0
  6
CONTINUOUS
 62
    7
 10
42.118929
 20
21.116564
 11
25.399343
 21
26.057945
  0
LINE
  8
_0-3_0-4
  6
CONTINUOUS
 62
    7
 10
42.118929
 20
19.289911
 11
42.118929
 21
23.398013
  0
LINE
  8
_0-3_0-4
  6
CONTINUOUS
 62
    7
 10
42.118929
 20
19.289911
 11
17.877241
 21
26.326227
  0
LINE
  8
_0-3_0-4
  6
CONTINUOUS
 62
    7
 10
17.877241
 20
26.326227
 11
18.526286
 21
26.329265
  0
LINE
  8
_0-1_0-0
  6
CONTINUOUS
 62
    7
 10
58.906242
 20
26.033512
 11
65.582491
 21
26.281706
  0
LINE
  8
_0-3_0-4
  6
CONTINUOUS
 62
    7
 10
58.906242
 20
26.033512
 11
41.993801
 21
32.129848
  0
LINE
  8
_0-2_0-2
  6
CONTINUOUS
 62
    7
 10
41.993801
 20
32.129848
 11
41.993801
 21
35.891674
  0
LINE
  8
_0-2_0-2
  6
CONTINUOUS
 62
    7
 10
41.993801
 20
35.891674
 11
66.222758
 21
26.8169
  0
LINE
  8
_0-0_0-E
  6
CONTINUOUS
 62
    7
 10
66.222758
 20
26.281706
 11
66.222758
 21
26.8169
  0
LINE
  8
_0-0_0-E
  6
CONTINUOUS
 62
    7
 10
66.222758
 20
26.281706
 11
41.993801
 21
35.346141
  0
LINE
  8
_0-1_0-0
  6
CONTINUOUS
 62
    7
 10
41.993801
 20
35.346072
 11
17.877241
 21
26.326227
  0
ARC
  8
_0-4_1
  6
CONTINUOUS
 62
    7
 10
50.428416
 20
27.402726
 40
1.2271479
 50
328.32006
 51
34.966589
  0
ARC
  8
_0-4_1
  6
CONTINUOUS
 62
    7
 10
48.292128
 20
26.126763
 40
3.7133603
 50
32.20872
 51
51.515345
  0
ARC
  8
_0-4_1
  6
CONTINUOUS
 62
    7
 10
48.081156
 20
29.280422
 40
4.2265766
 50
292.32617
 51
323.36333
  0
ARC
  8
_0-4_1
  6
CONTINUOUS
 62
    7
 10
43.324703
 20
40.553282
 40
16.461677
 50
276.47765
 51
292.73539
  0
ARC
  8
_0-4_1
  6
CONTINUOUS
 62
    7
 10
42.14632
 20
50.410297
 40
26.38877
 50
262.77333
 51
276.60539
  0
ARC
  8
_0-4_1
  6
CONTINUOUS
 62
    7
 10
41.403464
 20
43.084858
 40
19.028969
 50
251.25146
 51
262.21766
  0
ARC
  8
_0-4_1
  6
CONTINUOUS
 62
    7
 10
37.370213
 20
31.230118
 40
6.5069196
 50
228.85114
 51
251.33024
  0
ARC
  8
_0-4_1
  6
CONTINUOUS
 62
    7
 10
34.369157
 20
27.473222
 40
1.7163999
 50
158.90656
 51
221.74609
  0
ARC
  8
_0-4_1
  6
CONTINUOUS
 62
    7
 10
35.510263
 20
26.309252
 40
3.2704271
 50
118.10791
 51
146.98991
  0
ARC
  8
_0-4_1
  6
CONTINUOUS
 62
    7
 10
42.17476
 20
5.010631
 40
25.814812
 50
79.760223
 51
102.18181
  0
ARC
  8
_0-4_1
  6
CONTINUOUS
 62
    7
 10
34.709312
 20
27.387803
 40
1.3575115
 50
145.31835
 51
202.04522
  0
ARC
  8
_0-4_1
  6
CONTINUOUS
 62
    7
 10
36.544704
 20
25.828833
 40
3.7613946
 50
113.32929
 51
141.69645
  0
ARC
  8
_0-4_1
  6
CONTINUOUS
 62
    7
 10
40.074268
 20
18.334624
 40
12.043766
 50
98.25569
 51
114.62901
  0
ARC
  8
_0-4_1
  6
CONTINUOUS
 62
    7
 10
42.025668
 20
9.0568955
 40
21.513894
 50
86.685592
 51
99.8511
  0
ARC
  8
_0-4_1
  6
CONTINUOUS
 62
    7
 10
42.496987
 20
10.854789
 40
19.69517
 50
75.415541
 51
87.752098
  0
ARC
  8
_0-4_1
  6
CONTINUOUS
 62
    7
 10
45.803207
 20
22.717355
 40
7.385378
 50
54.322519
 51
77.065197
  0
ARC
  8
_0-4_1
  6
CONTINUOUS
 62
    7
 10
49.350209
 20
27.432803
 40
1.4920426
 50
28.020077
 51
59.364229
  0
ARC
  8
_0-4_1
  6
CONTINUOUS
 62
    7
 10
49.803268
 20
27.421331
 40
1.119899
 50
317.66293
 51
39.504107
  0
ARC
  8
_0-4_1
  6
CONTINUOUS
 62
    7
 10
47.492915
 20
29.269365
 40
4.0767635
 50
293.17981
 51
320.33341
  0
ARC
  8
_0-4_1
  6
CONTINUOUS
 62
    7
 10
43.808412
 20
37.815333
 40
13.383157
 50
279.16688
 51
293.27922
  0
ARC
  8
_0-4_1
  6
CONTINUOUS
 62
    7
 10
42.121727
 20
47.345698
 40
23.060979
 50
264.90992
 51
279.53175
  0
ARC
  8
_0-4_1
  6
CONTINUOUS
 62
    7
 10
41.194038
 20
40.800333
 40
16.4627
 50
251.76119
 51
266.10486
  0
ARC
  8
_0-4_1
  6
CONTINUOUS
 62
    7
 10
38.003291
 20
31.404483
 40
6.5408762
 50
233.16563
 51
252.54738
  0
ARC
  8
_0-4_1
  6
CONTINUOUS
 62
    7
 10
36.376251
 20
28.846513
 40
3.5257264
 50
213.93484
 51
229.40452
  0
ARC
  8
_0-4_1
  6
CONTINUOUS
 62
    7
 10
34.887182
 20
27.424599
 40
0.9998778
 50
151.03408
 51
208.96591
  0
ARC
  8
_0-4_1
  6
CONTINUOUS
 62
    7
 10
36.553373
 20
26.186416
 40
3.0624585
 50
110.73226
 51
143.12943
  0
ARC
  8
_0-4_1
  6
CONTINUOUS
 62
    7
 10
41.064186
 20
15.543332
 40
14.620142
 50
102.08302
 51
112.50017
  0
ARC
  8
_0-4_1
  6
CONTINUOUS
 62
    7
 10
42.02685
 20
8.2687118
 40
21.942813
 50
87.052605
 51
100.56459
  0
ARC
  8
_0-4_1
  6
CONTINUOUS
 62
    7
 10
42.661003
 20
12.130599
 40
18.05866
 50
75.701185
 51
88.432061
  0
ARC
  8
_0-4_1
  6
CONTINUOUS
 62
    7
 10
45.616437
 20
22.648433
 40
7.1416934
 50
62.115272
 51
77.837275
  0
ARC
  8
_0-4_1
  6
CONTINUOUS
 62
    7
 10
47.694504
 20
26.141182
 40
3.0892794
 50
34.902914
 51
65.887515
  0
ARC
  8
_0-4_1
  6
CONTINUOUS
 62
    7
 10
49.353292
 20
27.424599
 40
0.9998778
 50
331.03408
 51
28.96591
  0
ARC
  8
_0-4_1
  6
CONTINUOUS
 62
    7
 10
47.076799
 20
29.346223
 40
3.9646922
 50
303.24232
 51
322.64008
  0
ARC
  8
_0-4_1
  6
CONTINUOUS
 62
    7
 10
44.00173
 20
36.566942
 40
11.771432
 50
277.00571
 51
296.47852
  0
ARC
  8
_0-4_1
  6
CONTINUOUS
 62
    7
 10
42.263514
 20
45.315728
 40
20.677384
 50
267.40867
 51
278.82975
  0
ARC
  8
_0-4_1
  6
CONTINUOUS
 62
    7
 10
41.824854
 20
44.626128
 40
19.972805
 50
255.51228
 51
268.5764
  0
ARC
  8
_0-4_1
  6
CONTINUOUS
 62
    7
 10
38.639468
 20
32.248878
 40
7.1922506
 50
237.86754
 51
255.4139
  0
ARC
  8
_0-4_1
  6
CONTINUOUS
 62
    7
 10
36.537867
 20
28.727371
 40
3.0937772
 50
215.28273
 51
236.13878
  0
ARC
  8
_0-4_1
  6
CONTINUOUS
 62
    7
 10
36.803743
 20
27.424599
 40
0.8435986
 50
133.2375
 51
206.95727
  0
ARC
  8
_0-4_1
  6
CONTINUOUS
 62
    7
 10
38.739005
 20
25.61675
 40
3.490568
 50
106.7732
 51
136.05302
  0
ARC
  8
_0-4_1
  6
CONTINUOUS
 62
    7
 10
41.917752
 20
15.919315
 40
13.694948
 50
92.224566
 51
107.79818
  0
ARC
  8
_0-4_1
  6
CONTINUOUS
 62
    7
 10
42.261536
 20
15.441078
 40
14.189891
 50
76.631162
 51
93.536808
  0
ARC
  8
_0-4_1
  6
CONTINUOUS
 62
    7
 10
44.38336
 20
23.265205
 40
6.0925271
 50
59.70526
 51
79.032223
  0
ARC
  8
_0-4_1
  6
CONTINUOUS
 62
    7
 10
46.541879
 20
26.862014
 40
1.8986724
 50
29.849384
 51
61.194694
  0
ARC
  8
_0-4_1
  6
CONTINUOUS
 62
    7
 10
47.454378
 20
27.424599
 40
0.8279072
 50
332.48906
 51
27.510936
  0
ARC
  8
_0-4_1
  6
CONTINUOUS
 62
    7
 10
46.395992
 20
28.135755
 40
2.0999061
 50
293.7408
 51
328.61567
  0
ARC
  8
_0-4_1
  6
CONTINUOUS
 62
    7
 10
43.136378
 20
34.905669
 40
9.6127119
 50
276.51926
 51
295.28
  0
ARC
  8
_0-4_1
  6
CONTINUOUS
 62
    7
 10
42.16228
 20
42.200124
 40
16.97117
 50
261.40898
 51
276.99059
  0
ARC
  8
_0-4_1
  6
CONTINUOUS
 62
    7
 10
41.546957
 20
37.17323
 40
11.909614
 50
249.62173
 51
260.72342
  0
ARC
  8
_0-4_1
  6
CONTINUOUS
 62
    7
 10
38.045276
 20
28.247117
 40
2.3293371
 50
211.15064
 51
253.91324
  0
ARC
  8
_0-4_1
  6
CONTINUOUS
 62
    7
 10
37.057093
 20
27.424599
 40
0.6999087
 50
151.03382
 51
208.96617
  0
ARC
  8
_0-4_1
  6
CONTINUOUS
 62
    7
 10
38.309393
 20
26.417155
 40
2.2999434
 50
114.56795
 51
144.16818
  0
ARC
  8
_0-4_1
  6
CONTINUOUS
 62
    7
 10
41.272233
 20
19.408504
 40
9.9083888
 50
97.470641
 51
113.2992
  0
ARC
  8
_0-4_1
  6
CONTINUOUS
 62
    7
 10
42.088435
 20
14.561306
 40
14.821644
 50
83.623422
 51
98.162808
  0
ARC
  8
_0-4_1
  6
CONTINUOUS
 62
    7
 10
42.720196
 20
17.783989
 40
11.551887
 50
73.502002
 51
84.962374
  0
ARC
  8
_0-4_1
  6
CONTINUOUS
 62
    7
 10
45.169356
 20
25.280798
 40
3.6747614
 50
49.912583
 51
76.924371
  0
ARC
  8
_0-4_1
  6
CONTINUOUS
 62
    7
 10
47.10646
 20
27.404729
 40
0.7770871
 50
303.53324
 51
27.500988
  0
ARC
  8
_0-4_1
  6
CONTINUOUS
 62
    7
 10
44.991166
 20
29.947894
 40
4.0812749
 50
285.19668
 51
308.57033
  0
ARC
  8
_0-4_1
  6
CONTINUOUS
 62
    7
 10
42.289817
 20
39.253376
 40
13.770493
 50
272.31019
 51
285.89408
  0
ARC
  8
_0-4_1
  6
CONTINUOUS
 62
    7
 10
41.955854
 20
38.393407
 40
12.929933
 50
260.08157
 51
273.94269
  0
ARC
  8
_0-4_1
  6
CONTINUOUS
 62
    7
 10
40.669669
 20
33.393358
 40
7.7936427
 50
244.61799
 51
263.06564
  0
ARC
  8
_0-4_1
  6
CONTINUOUS
 62
    7
 10
38.072452
 20
28.147812
 40
1.9436212
 50
213.1267
 51
247.50807
  0
ARC
  8
_0-4_1
  6
CONTINUOUS
 62
    7
 10
42.811682
 20
41.020502
 40
13.871552
 50
293.22708
 51
298.00819
  0
ARC
  8
_0-4_1
  6
CONTINUOUS
 62
    7
 10
42.729896
 20
38.804475
 40
10.81654
 50
275.70371
 51
290.59654
  0
ARC
  8
_0-4_1
  6
CONTINUOUS
 62
    7
 10
42.128624
 20
42.505553
 40
14.560875
 50
263.40367
 51
276.61061
  0
ARC
  8
_0-4_1
  6
CONTINUOUS
 62
    7
 10
40.726269
 20
35.451511
 40
7.4153707
 50
245.96038
 51
267.91101
  0
ARC
  8
_0-4_1
  6
CONTINUOUS
 62
    7
 10
38.349651
 20
34.598907
 40
6.7626192
 50
239.47405
 51
249.29048
  0
ARC
  8
_0-4_1
  6
CONTINUOUS
 62
    7
 10
30.075546
 20
35.771845
 40
1.1081268
 50
291.22986
 51
332.6241
  0
ARC
  8
_0-4_1
  6
CONTINUOUS
 62
    7
 10
30.744155
 20
35.421013
 40
0.3530982
 50
333.28904
 51
26.709282
  0
ARC
  8
_0-4_1
  6
CONTINUOUS
 62
    7
 10
30.792945
 20
35.398542
 40
0.3223625
 50
34.195945
 51
91.072741
  0
ARC
  8
_0-4_1
  6
CONTINUOUS
 62
    7
 10
30.766096
 20
34.921058
 40
0.800061
 50
88.509262
 51
111.19541
  0
ARC
  8
_0-4_1
  6
CONTINUOUS
 62
    7
 10
34.209015
 20
35.812048
 40
1.1727679
 50
108.33208
 51
128.78135
  0
ARC
  8
_0-4_1
  6
CONTINUOUS
 62
    7
 10
34.366426
 20
35.703066
 40
1.3574109
 50
131.08015
 51
145.52165
  0
ARC
  8
_0-4_1
  6
CONTINUOUS
 62
    7
 10
33.667529
 20
36.202453
 40
0.498839
 50
147.3624
 51
188.19741
  0
ARC
  8
_0-4_1
  6
CONTINUOUS
 62
    7
 10
33.431772
 20
36.19837
 40
0.2665545
 50
194.56731
 51
260.08745
  0
ARC
  8
_0-4_1
  6
CONTINUOUS
 62
    7
 10
33.524083
 20
36.556254
 40
0.6356631
 50
257.44332
 51
294.1855
  0
TEXT
  8
_0-4_1
 62
    7
 10
37.966015
 20
6.8777343
 40
3
 41
0.891
 50
0
  1
YD1309
  0
ENDSEC
  0
EOF
