  0
SECTION
  2
HEADER
  9
$ACADVER
  1
AC1009
  9
$INSBASE
 10
0
 20
0
 30
0
  9
$EXTMIN
 10
0
 20
0
  9
$EXTMAX
 10
118.8
 20
84
  9
$LIMMIN
 10
0
 20
0
  9
$LIMMAX
 10
118.8
 20
84
  9
$LTSCALE
 40
0.2
  0
ENDSEC
  0
SECTION
  2
TABLES
  0
TABLE
  2
LTYPE
 70
     9
  0
LTYPE
  2
CONTINUOUS
 70
    64
  3
実線
 72
    65
 73
     0
 40
0.0
  0
LTYPE
  2
DASHED1
 70
    64
  3
--  --  --  --  --  --  --  --  
 72
    65
 73
     2
 40
2.5
 49
1.25
 49
-1.25
  0
LTYPE
  2
DASHED2
 70
    64
  3
----    ----    ----    ----    
 72
    65
 73
     2
 40
5.0
 49
2.5
 49
-2.5
  0
LTYPE
  2
DASHED3
 70
    64
  3
------  ------  ------  ------  
 72
    65
 73
     2
 40
5.0
 49
3.75
 49
-1.25
  0
LTYPE
  2
CENTER1
 70
    64
  3
----- - ----- - ----- - ----- - 
 72
    65
 73
     4
 40
10.0
 49
6.25
 49
-1.25
 49
1.25
 49
-1.25
  0
LTYPE
  2
CENTER2
 70
    64
  3
----------  --  ----------  --  
 72
    65
 73
     4
 40
20.0
 49
12.5
 49
-2.5
 49
2.5
 49
-2.5
  0
LTYPE
  2
PHANTOM1
 70
    64
  3
--- - - --- - - --- - - --- - - 
 72
    65
 73
     6
 40
10.0
 49
3.25
 49
-1.25
 49
1.25
 49
-1.25
 49
1.25
 49
-1.25
  0
LTYPE
  2
PHANTOM2
 70
    64
  3
--------  -  -  --------  -  -  
 72
    65
 73
     6
 40
20.0
 49
10.0
 49
-2.5
 49
1.25
 49
-2.5
 49
1.25
 49
-2.5
  0
LTYPE
  2
DOT
 70
    64
  3
-   -   -   -   -   -   -   -   
 72
    65
 73
     2
 40
2.5
 49
0.625
 49
-1.875
  0
LTYPE
  2
DUMMY
 70
    64
  3
ダミー
 72
    65
 73
     0
 40
0.0
  0
LTYPE
  2
RAND1
 70
    64
  3
----- - ----- - ----- - ----- - 
 72
    65
 73
     4
 40
10.0
 49
6.25
 49
-1.25
 49
1.25
 49
-1.25
  0
LTYPE
  2
RAND2
 70
    64
  3
----------  --  ----------  --  
 72
    65
 73
     4
 40
20.0
 49
12.5
 49
-2.5
 49
2.5
 49
-2.5
  0
LTYPE
  2
RAND3
 70
    64
  3
--- - - --- - - --- - - --- - - 
 72
    65
 73
     6
 40
10.0
 49
3.25
 49
-1.25
 49
1.25
 49
-1.25
 49
1.25
 49
-1.25
  0
LTYPE
  2
RAND4
 70
    64
  3
--------  -  -  --------  -  -  
 72
    65
 73
     6
 40
20.0
 49
10.0
 49
-2.5
 49
1.25
 49
-2.5
 49
1.25
 49
-2.5
  0
LTYPE
  2
RAND5
 70
    64
  3
----- - ----- - ----- - ----- - 
 72
    65
 73
     4
 40
10.0
 49
6.25
 49
-1.25
 49
1.25
 49
-1.25
  0
LTYPE
  2
LONG1
 70
    64
  3
----------  --  ----------  --  
 72
    65
 73
     4
 40
20.0
 49
12.5
 49
-2.5
 49
2.5
 49
-2.5
  0
LTYPE
  2
LONG2
 70
    64
  3
--- - - --- - - --- - - --- - - 
 72
    65
 73
     6
 40
10.0
 49
3.25
 49
-1.25
 49
1.25
 49
-1.25
 49
1.25
 49
-1.25
  0
LTYPE
  2
LONG3
 70
    64
  3
--------  -  -  --------  -  -  
 72
    65
 73
     6
 40
20.0
 49
10.0
 49
-2.5
 49
1.25
 49
-2.5
 49
1.25
 49
-2.5
  0
LTYPE
  2
LONG4
 70
    64
  3
----- - ----- - ----- - ----- - 
 72
    65
 73
     4
 40
10.0
 49
6.25
 49
-1.25
 49
1.25
 49
-1.25
  0
LTYPE
  2
LONG5
 70
    64
  3
----------  --  ----------  --  
 72
    65
 73
     4
 40
20.0
 49
12.5
 49
-2.5
 49
2.5
 49
-2.5
  0
ENDTAB
  0
TABLE
  2
STYLE
  5
3
100
AcDbSymbolTable
 70
     1
  0
STYLE
  5
10
100
AcDbSymbolTableRecord
100
AcDbTextStyleTableRecord
  2
STANDARD
 70
     0
 40
0.0
 41
1.0
 50
0.0
 71
     0
 42
0.2
  3
txt
  4
bigfont.shx
  0
ENDTAB
  0
TABLE
  2
LAYER
 70
    2
  0
LAYER
  2
_0-0_1
 70
   64
 62
    7
  6
CONTINUOUS
  0
LAYER
  2
ADD_LINE
 70
   64
 62
    7
  6
CONTINUOUS
  0
ENDTAB
  0
ENDSEC
  0
SECTION
  2
BLOCKS
  0
ENDSEC
  0
SECTION
  2
ENTITIES
  0
TEXT
  8
_0-0_1
 62
    7
 10
45.494773
 20
14.548086
 40
5
 41
0.966667
 50
0
  1
YL1302
  0
LINE
  8
_0-0_1
  6
CONTINUOUS
 62
    7
 10
60.19511
 20
47.889161
 11
60.19511
 21
66.139161
  0
LINE
  8
_0-0_1
  6
CONTINUOUS
 62
    7
 10
45.19511
 20
66.139161
 11
45.19511
 21
47.889161
  0
ARC
  8
_0-0_1
  6
CONTINUOUS
 62
    7
 10
57.57559
 20
66.138661
 40
2.61952
 50
0.011079
 51
8.589011
  0
ARC
  8
_0-0_1
  6
CONTINUOUS
 62
    7
 10
57.34082
 20
66.105591
 40
2.856593
 50
8.541558
 51
24.682152
  0
ARC
  8
_0-0_1
  6
CONTINUOUS
 62
    7
 10
56.70992
 20
65.815841
 40
3.550853
 50
24.679193
 51
38.569578
  0
ARC
  8
_0-0_1
  6
CONTINUOUS
 62
    7
 10
55.81739
 20
65.103731
 40
4.692655
 50
38.573387
 51
50.058328
  0
ARC
  8
_0-0_1
  6
CONTINUOUS
 62
    7
 10
54.84121
 20
63.937411
 40
6.213584
 50
50.061516
 51
59.563733
  0
ARC
  8
_0-0_1
  6
CONTINUOUS
 62
    7
 10
53.95235
 20
62.424171
 40
7.968563
 50
59.56526
 51
67.607394
  0
ARC
  8
_0-0_1
  6
CONTINUOUS
 62
    7
 10
53.27849
 20
60.788421
 40
9.737683
 50
67.60791
 51
74.641735
  0
ARC
  8
_0-0_1
  6
CONTINUOUS
 62
    7
 10
52.87502
 20
59.319451
 40
11.261055
 50
74.641744
 51
81.025845
  0
ARC
  8
_0-0_1
  6
CONTINUOUS
 62
    7
 10
52.714
 20
58.300201
 40
12.292945
 50
81.025591
 51
87.047525
  0
ARC
  8
_0-0_1
  6
CONTINUOUS
 62
    7
 10
52.69511
 20
57.935751
 40
12.657886
 50
87.0471
 51
92.9529
  0
ARC
  8
_0-0_1
  6
CONTINUOUS
 62
    7
 10
52.67615
 20
58.300871
 40
12.292275
 50
92.95231
 51
98.974573
  0
ARC
  8
_0-0_1
  6
CONTINUOUS
 62
    7
 10
52.51491
 20
59.320801
 40
11.259678
 50
98.973764
 51
105.35864
  0
ARC
  8
_0-0_1
  6
CONTINUOUS
 62
    7
 10
52.11104
 20
60.790461
 40
9.735532
 50
105.35748
 51
112.39286
  0
ARC
  8
_0-0_1
  6
CONTINUOUS
 62
    7
 10
51.43653
 20
62.426871
 40
7.965559
 50
112.39108
 51
120.43625
  0
ARC
  8
_0-0_1
  6
CONTINUOUS
 62
    7
 10
50.54677
 20
63.940591
 40
6.209703
 50
120.43329
 51
129.94146
  0
ARC
  8
_0-0_1
  6
CONTINUOUS
 62
    7
 10
49.56955
 20
65.106931
 40
4.688088
 50
129.93605
 51
141.43222
  0
ARC
  8
_0-0_1
  6
CONTINUOUS
 62
    7
 10
48.67647
 20
65.818211
 40
3.546377
 50
141.42161
 51
155.32961
  0
ARC
  8
_0-0_1
  6
CONTINUOUS
 62
    7
 10
48.04663
 20
66.106421
 40
2.85373
 50
155.30969
 51
171.46659
  0
ARC
  8
_0-0_1
  6
CONTINUOUS
 62
    7
 10
47.82932
 20
66.137551
 40
2.634212
 50
171.43495
 51
179.96495
  0
ARC
  8
_0-0_1
  6
CONTINUOUS
 62
    7
 10
56.88696
 20
47.878381
 40
2.558174
 50
0.241433
 51
16.279663
  0
ARC
  8
_0-0_1
  6
CONTINUOUS
 62
    7
 10
58.02148
 20
48.307171
 40
1.352182
 50
12.312092
 51
28.268041
  0
ARC
  8
_0-0_1
  6
CONTINUOUS
 62
    7
 10
23.466653
 20
30.330884
 40
40.3031
 50
27.510869
 51
28.067378
  0
ARC
  8
_0-0_1
  6
CONTINUOUS
 62
    7
 10
55.92757
 20
47.386651
 40
3.641698
 50
31.582029
 51
44.144847
  0
ARC
  8
_0-0_1
  6
CONTINUOUS
 62
    7
 10
56.85948
 20
48.466801
 40
2.22425
 50
40.896264
 51
52.392483
  0
ARC
  8
_0-0_1
  6
CONTINUOUS
 62
    7
 10
18.484714
 20
-0.2941205
 40
64.274524
 50
51.817907
 51
52.233334
  0
ARC
  8
_0-0_1
  6
CONTINUOUS
 62
    7
 10
54.27733
 20
45.488969
 40
6.166641
 50
54.600913
 51
63.447465
  0
ARC
  8
_0-0_1
  6
CONTINUOUS
 62
    7
 10
55.25031
 20
47.767641
 40
3.696343
 50
61.148915
 51
69.267064
  0
ARC
  8
_0-0_1
  6
CONTINUOUS
 62
    7
 10
2.133946
 20
-90.449407
 40
151.76824
 50
68.985422
 51
69.188824
  0
ARC
  8
_0-0_1
  6
CONTINUOUS
 62
    7
 10
53.05579
 20
42.731509
 40
9.188865
 50
70.946015
 51
77.760931
  0
ARC
  8
_0-0_1
  6
CONTINUOUS
 62
    7
 10
53.77074
 20
46.761498
 40
5.101282
 50
76.01281
 51
82.483615
  0
ARC
  8
_0-0_1
  6
CONTINUOUS
 62
    7
 10
-20.097016
 20
-506.20355
 40
562.97832
 50
82.392035
 51
82.451214
  0
ARC
  8
_0-0_1
  6
CONTINUOUS
 62
    7
 10
52.70139
 20
40.928738
 40
11.0281
 50
83.960821
 51
90.032608
  0
ARC
  8
_0-0_1
  6
CONTINUOUS
 62
    7
 10
52.69444
 20
40.821968
 40
11.134868
 50
89.996528
 51
96.010042
  0
ARC
  8
_0-0_1
  6
CONTINUOUS
 62
    7
 10
51.96601
 20
46.403261
 40
5.509765
 50
94.553575
 51
100.60317
  0
ARC
  8
_0-0_1
  6
CONTINUOUS
 62
    7
 10
99.97841
 20
-207.90893
 40
264.31449
 50
100.68937
 51
100.81419
  0
ARC
  8
_0-0_1
  6
CONTINUOUS
 62
    7
 10
52.40547
 20
42.477887
 40
9.451795
 50
102.33396
 51
108.95908
  0
ARC
  8
_0-0_1
  6
CONTINUOUS
 62
    7
 10
50.67501
 20
47.154521
 40
4.468181
 50
107.45635
 51
114.36939
  0
ARC
  8
_0-0_1
  6
CONTINUOUS
 62
    7
 10
90.38479
 20
-39.362173
 40
99.662701
 50
114.64159
 51
114.94243
  0
ARC
  8
_0-0_1
  6
CONTINUOUS
 62
    7
 10
51.25176
 20
45.257643
 40
6.435675
 50
116.73778
 51
125.21383
  0
ARC
  8
_0-0_1
  6
CONTINUOUS
 62
    7
 10
49.15143
 20
48.073461
 40
2.925479
 50
123.40596
 51
132.54279
  0
ARC
  8
_0-0_1
  6
CONTINUOUS
 62
    7
 10
80.32352
 20
14.79468
 40
48.523329
 50
133.09258
 51
133.61867
  0
ARC
  8
_0-0_1
  6
CONTINUOUS
 62
    7
 10
49.58062
 20
47.294941
 40
3.790256
 50
136.10228
 51
148.17084
  0
ARC
  8
_0-0_1
  6
CONTINUOUS
 62
    7
 10
47.76029
 20
48.334851
 40
1.696946
 50
145.58752
 51
158.83423
  0
ARC
  8
_0-0_1
  6
CONTINUOUS
 62
    7
 10
97.74082
 20
29.683907
 40
55.043906
 50
159.51458
 51
159.90528
  0
ARC
  8
_0-0_1
  6
CONTINUOUS
 62
    7
 10
48.50459
 20
47.878191
 40
2.559503
 50
163.72452
 51
179.75437
  0
ARC
  8
_0-0_1
  6
CONTINUOUS
 62
    7
 10
57.21698
 20
47.877241
 40
2.478159
 50
0.275721
 51
16.848356
  0
ARC
  8
_0-0_1
  6
CONTINUOUS
 62
    7
 10
58.30257
 20
48.304461
 40
1.318713
 50
12.750518
 51
29.216672
  0
ARC
  8
_0-0_1
  6
CONTINUOUS
 62
    7
 10
27.262073
 20
31.566407
 40
36.584344
 50
28.36678
 51
28.986258
  0
ARC
  8
_0-0_1
  6
CONTINUOUS
 62
    7
 10
56.18403
 20
47.329191
 40
3.653693
 50
32.553015
 51
45.227888
  0
ARC
  8
_0-0_1
  6
CONTINUOUS
 62
    7
 10
57.06684
 20
48.404191
 40
2.272526
 50
41.938578
 51
53.43155
  0
ARC
  8
_0-0_1
  6
CONTINUOUS
 62
    7
 10
20.580327
 20
0.3289435
 40
62.625491
 50
52.826257
 51
53.263067
  0
ARC
  8
_0-0_1
  6
CONTINUOUS
 62
    7
 10
54.40296
 20
45.206978
 40
6.435259
 50
55.593745
 51
64.290567
  0
ARC
  8
_0-0_1
  6
CONTINUOUS
 62
    7
 10
55.36493
 20
47.560421
 40
3.90053
 50
62.024926
 51
69.96012
  0
ARC
  8
_0-0_1
  6
CONTINUOUS
 62
    7
 10
3.201842
 20
-93.200339
 40
154.0157
 50
69.673752
 51
69.880793
  0
ARC
  8
_0-0_1
  6
CONTINUOUS
 62
    7
 10
53.08463
 20
42.122392
 40
9.796428
 50
71.584902
 51
78.192284
  0
ARC
  8
_0-0_1
  6
CONTINUOUS
 62
    7
 10
53.81294
 20
46.397335
 40
5.465308
 50
76.49505
 51
82.7526
  0
ARC
  8
_0-0_1
  6
CONTINUOUS
 62
    7
 10
-19.714138
 20
-524.4178
 40
580.9965
 50
82.660979
 51
82.720416
  0
ARC
  8
_0-0_1
  6
CONTINUOUS
 62
    7
 10
52.70196
 20
40.105739
 40
11.851099
 50
84.175627
 51
90.033115
  0
ARC
  8
_0-0_1
  6
CONTINUOUS
 62
    7
 10
52.6943
 20
39.986291
 40
11.970546
 50
89.996134
 51
95.795124
  0
ARC
  8
_0-0_1
  6
CONTINUOUS
 62
    7
 10
51.93911
 20
45.991533
 40
5.921516
 50
94.392194
 51
100.22641
  0
ARC
  8
_0-0_1
  6
CONTINUOUS
 62
    7
 10
99.46955
 20
-215.15962
 40
271.36278
 50
100.31319
 51
100.43915
  0
ARC
  8
_0-0_1
  6
CONTINUOUS
 62
    7
 10
52.38231
 20
41.838303
 40
10.090217
 50
101.904
 51
108.3188
  0
ARC
  8
_0-0_1
  6
CONTINUOUS
 62
    7
 10
50.59213
 20
46.862691
 40
4.75931
 50
106.87081
 51
113.57464
  0
ARC
  8
_0-0_1
  6
CONTINUOUS
 62
    7
 10
88.98966
 20
-39.924275
 40
99.661037
 50
113.85231
 51
114.16263
  0
ARC
  8
_0-0_1
  6
CONTINUOUS
 62
    7
 10
51.13749
 20
44.947374
 40
6.734374
 50
115.90292
 51
124.21276
  0
ARC
  8
_0-0_1
  6
CONTINUOUS
 62
    7
 10
48.98603
 20
47.946001
 40
3.046361
 50
122.46088
 51
131.44979
  0
ARC
  8
_0-0_1
  6
CONTINUOUS
 62
    7
 10
77.71781
 20
16.117049
 40
45.925071
 50
132.03105
 51
132.59881
  0
ARC
  8
_0-0_1
  6
CONTINUOUS
 62
    7
 10
49.33406
 20
47.226051
 40
3.817016
 50
135.04431
 51
147.17477
  0
ARC
  8
_0-0_1
  6
CONTINUOUS
 62
    7
 10
47.50829
 20
48.313981
 40
1.694711
 50
144.62178
 51
158.02517
  0
ARC
  8
_0-0_1
  6
CONTINUOUS
 62
    7
 10
90.98518
 20
31.468198
 40
48.320949
 50
158.79249
 51
159.24032
  0
ARC
  8
_0-0_1
  6
CONTINUOUS
 62
    7
 10
48.17481
 20
47.877001
 40
2.479731
 50
163.15693
 51
179.71898
  0
LINE
  8
_0-0_1
  6
CONTINUOUS
 62
    7
 10
45.69511
 20
47.889161
 11
45.72258
 21
47.532241
  0
ARC
  8
_0-0_1
  6
CONTINUOUS
 62
    7
 10
49.50057
 20
48.282691
 40
4.34552
 50
190.26144
 51
195.29944
  0
ARC
  8
_0-0_1
  6
CONTINUOUS
 62
    7
 10
57.56243
 20
47.902311
 40
2.632716
 50
343.07926
 51
359.71391
  0
ARC
  8
_0-0_1
  6
CONTINUOUS
 62
    7
 10
57.56414
 20
47.876281
 40
2.631003
 50
0.280627
 51
16.926188
  0
ARC
  8
_0-0_1
  6
CONTINUOUS
 62
    7
 10
58.71469
 20
48.331541
 40
1.40136
 50
12.810576
 51
29.34611
  0
ARC
  8
_0-0_1
  6
CONTINUOUS
 62
    7
 10
26.07687
 20
30.646985
 40
38.522233
 50
28.483292
 51
29.111456
  0
ARC
  8
_0-0_1
  6
CONTINUOUS
 62
    7
 10
56.45217
 20
47.283551
 40
3.897805
 50
32.684853
 51
45.373752
  0
ARC
  8
_0-0_1
  6
CONTINUOUS
 62
    7
 10
57.38644
 20
48.428911
 40
2.430364
 50
42.079195
 51
53.570451
  0
ARC
  8
_0-0_1
  6
CONTINUOUS
 62
    7
 10
18.728034
 20
-2.7574405
 40
66.574711
 50
52.961217
 51
53.400765
  0
ARC
  8
_0-0_1
  6
CONTINUOUS
 62
    7
 10
54.53422
 20
44.987282
 40
6.901556
 50
55.726293
 51
64.402495
  0
ARC
  8
_0-0_1
  6
CONTINUOUS
 62
    7
 10
55.55839
 20
47.507671
 40
4.189307
 50
62.141435
 51
70.051827
  0
ARC
  8
_0-0_1
  6
CONTINUOUS
 62
    7
 10
0.055225
 20
-103.00041
 40
164.60524
 50
69.76493
 51
69.972382
  0
ARC
  8
_0-0_1
  6
CONTINUOUS
 62
    7
 10
53.11459
 20
41.649603
 40
10.535761
 50
71.669418
 51
78.249185
  0
ARC
  8
_0-0_1
  6
CONTINUOUS
 62
    7
 10
53.89311
 20
46.244148
 40
5.881517
 50
76.55874
 51
82.788044
  0
ARC
  8
_0-0_1
  6
CONTINUOUS
 62
    7
 10
-24.478847
 20
-565.16968
 40
622.29781
 50
82.696444
 51
82.755896
  0
ARC
  8
_0-0_1
  6
CONTINUOUS
 62
    7
 10
52.7025
 20
39.467482
 40
12.758632
 50
84.203942
 51
90.033168
  0
ARC
  8
_0-0_1
  6
CONTINUOUS
 62
    7
 10
52.69423
 20
39.338231
 40
12.887881
 50
89.996086
 51
95.766803
  0
ARC
  8
_0-0_1
  6
CONTINUOUS
 62
    7
 10
51.88512
 20
45.804375
 40
6.375054
 50
94.370916
 51
100.17674
  0
ARC
  8
_0-0_1
  6
CONTINUOUS
 62
    7
 10
102.51162
 20
-233.73144
 40
290.45835
 50
100.26357
 51
100.38964
  0
ARC
  8
_0-0_1
  6
CONTINUOUS
 62
    7
 10
52.35824
 20
41.342151
 40
10.853611
 50
101.84726
 51
108.23413
  0
ARC
  8
_0-0_1
  6
CONTINUOUS
 62
    7
 10
50.44081
 20
46.751118
 40
5.117901
 50
106.79335
 51
113.46933
  0
ARC
  8
_0-0_1
  6
CONTINUOUS
 62
    7
 10
91.21413
 20
-45.861969
 40
106.30898
 50
113.74763
 51
114.0591
  0
ARC
  8
_0-0_1
  6
CONTINUOUS
 62
    7
 10
51.01783
 20
44.706258
 40
7.224958
 50
115.79203
 51
124.07917
  0
ARC
  8
_0-0_1
  6
CONTINUOUS
 62
    7
 10
48.71638
 20
47.930691
 40
3.266199
 50
122.3348
 51
131.3032
  0
ARC
  8
_0-0_1
  6
CONTINUOUS
 62
    7
 10
79.03164
 20
14.180151
 40
48.632458
 50
131.88852
 51
132.46183
  0
ARC
  8
_0-0_1
  6
CONTINUOUS
 62
    7
 10
49.07582
 20
47.171861
 40
4.074124
 50
134.90187
 51
147.03951
  0
ARC
  8
_0-0_1
  6
CONTINUOUS
 62
    7
 10
47.12826
 20
48.338971
 40
1.806841
 50
144.49102
 51
157.91422
  0
ARC
  8
_0-0_1
  6
CONTINUOUS
 62
    7
 10
92.63821
 20
30.615986
 40
50.645786
 50
158.69368
 51
159.14963
  0
ARC
  8
_0-0_1
  6
CONTINUOUS
 62
    7
 10
47.82779
 20
47.876021
 40
2.632716
 50
163.07926
 51
179.71391
  0
LINE
  8
_0-0_1
  6
CONTINUOUS
 62
    7
 10
45.19511
 20
47.889161
 11
45.22455
 21
47.508571
  0
ARC
  8
_0-0_1
  6
DASHED3
 62
    7
 10
52.677971
 20
38.461376
 40
11.292271
 50
118.44197
 51
61.558025
  0
ARC
  8
_0-0_1
  6
DASHED3
 62
    7
 10
59.151542
 20
50.413058
 40
2.3
 50
188.42559
 51
241.55802
  0
ARC
  8
_0-0_1
  6
DASHED3
 62
    7
 10
46.2044
 20
50.413058
 40
2.3
 50
298.44198
 51
351.5744
  0
ARC
  8
_0-0_1
  6
DASHED3
 62
    7
 10
52.677971
 20
35.984606
 40
13.521646
 50
105.33782
 51
113.43721
  0
ARC
  8
_0-0_1
  6
DASHED3
 62
    7
 10
52.677971
 20
35.984606
 40
13.521646
 50
66.562782
 51
74.662178
  0
ARC
  8
_0-0_1
  6
CONTINUOUS
 62
    7
 10
12.75202
 20
65.162341
 40
50.645786
 50
339.01507
 51
339.14963
  0
ARC
  8
_0-0_1
  6
CONTINUOUS
 62
    7
 10
57.21541
 20
47.901321
 40
2.479731
 50
347.30595
 51
359.71898
  0
ARC
  8
_0-0_1
  6
CONTINUOUS
 62
    7
 10
56.88563
 20
47.900131
 40
2.559503
 50
351.51024
 51
359.75437
  0
ARC
  8
_0-0_1
  6
CONTINUOUS
 62
    7
 10
47.3264
 20
47.697651
 40
2.094062
 50
195.55613
 51
198.23616
  0
ARC
  8
_0-0_1
  6
CONTINUOUS
 62
    7
 10
49.74491
 20
48.256621
 40
4.087037
 50
190.20902
 51
192.37298
  0
LINE
  8
_0-0_1
  6
CONTINUOUS
 62
    7
 10
45.94511
 20
47.889161
 11
45.970538
 21
47.545743
  0
LINE
  8
_0-0_1
  6
DASHED3
 62
    7
 10
56.71564
 20
51.161129
 11
56.876366
 21
50.076051
  0
LINE
  8
_0-0_1
  6
DASHED3
 62
    7
 10
48.636423
 20
51.134941
 11
48.479577
 21
50.076051
  0
ENDSEC
  0
EOF
