  0
SECTION
  2
HEADER
  9
$ACADVER
  1
AC1009
  9
$INSBASE
 10
0
 20
0
 30
0
  9
$EXTMIN
 10
0
 20
0
  9
$EXTMAX
 10
118.8
 20
84
  9
$LIMMIN
 10
0
 20
0
  9
$LIMMAX
 10
118.8
 20
84
  9
$LTSCALE
 40
0.2
  0
ENDSEC
  0
SECTION
  2
TABLES
  0
TABLE
  2
LTYPE
 70
     9
  0
LTYPE
  2
CONTINUOUS
 70
    64
  3
実線
 72
    65
 73
     0
 40
0.0
  0
LTYPE
  2
DASHED1
 70
    64
  3
--  --  --  --  --  --  --  --  
 72
    65
 73
     2
 40
2.5
 49
1.25
 49
-1.25
  0
LTYPE
  2
DASHED2
 70
    64
  3
----    ----    ----    ----    
 72
    65
 73
     2
 40
5.0
 49
2.5
 49
-2.5
  0
LTYPE
  2
DASHED3
 70
    64
  3
------  ------  ------  ------  
 72
    65
 73
     2
 40
5.0
 49
3.75
 49
-1.25
  0
LTYPE
  2
CENTER1
 70
    64
  3
----- - ----- - ----- - ----- - 
 72
    65
 73
     4
 40
10.0
 49
6.25
 49
-1.25
 49
1.25
 49
-1.25
  0
LTYPE
  2
CENTER2
 70
    64
  3
----------  --  ----------  --  
 72
    65
 73
     4
 40
20.0
 49
12.5
 49
-2.5
 49
2.5
 49
-2.5
  0
LTYPE
  2
PHANTOM1
 70
    64
  3
--- - - --- - - --- - - --- - - 
 72
    65
 73
     6
 40
10.0
 49
3.25
 49
-1.25
 49
1.25
 49
-1.25
 49
1.25
 49
-1.25
  0
LTYPE
  2
PHANTOM2
 70
    64
  3
--------  -  -  --------  -  -  
 72
    65
 73
     6
 40
20.0
 49
10.0
 49
-2.5
 49
1.25
 49
-2.5
 49
1.25
 49
-2.5
  0
LTYPE
  2
DOT
 70
    64
  3
-   -   -   -   -   -   -   -   
 72
    65
 73
     2
 40
2.5
 49
0.625
 49
-1.875
  0
LTYPE
  2
DUMMY
 70
    64
  3
ダミー
 72
    65
 73
     0
 40
0.0
  0
LTYPE
  2
RAND1
 70
    64
  3
----- - ----- - ----- - ----- - 
 72
    65
 73
     4
 40
10.0
 49
6.25
 49
-1.25
 49
1.25
 49
-1.25
  0
LTYPE
  2
RAND2
 70
    64
  3
----------  --  ----------  --  
 72
    65
 73
     4
 40
20.0
 49
12.5
 49
-2.5
 49
2.5
 49
-2.5
  0
LTYPE
  2
RAND3
 70
    64
  3
--- - - --- - - --- - - --- - - 
 72
    65
 73
     6
 40
10.0
 49
3.25
 49
-1.25
 49
1.25
 49
-1.25
 49
1.25
 49
-1.25
  0
LTYPE
  2
RAND4
 70
    64
  3
--------  -  -  --------  -  -  
 72
    65
 73
     6
 40
20.0
 49
10.0
 49
-2.5
 49
1.25
 49
-2.5
 49
1.25
 49
-2.5
  0
LTYPE
  2
RAND5
 70
    64
  3
----- - ----- - ----- - ----- - 
 72
    65
 73
     4
 40
10.0
 49
6.25
 49
-1.25
 49
1.25
 49
-1.25
  0
LTYPE
  2
LONG1
 70
    64
  3
----------  --  ----------  --  
 72
    65
 73
     4
 40
20.0
 49
12.5
 49
-2.5
 49
2.5
 49
-2.5
  0
LTYPE
  2
LONG2
 70
    64
  3
--- - - --- - - --- - - --- - - 
 72
    65
 73
     6
 40
10.0
 49
3.25
 49
-1.25
 49
1.25
 49
-1.25
 49
1.25
 49
-1.25
  0
LTYPE
  2
LONG3
 70
    64
  3
--------  -  -  --------  -  -  
 72
    65
 73
     6
 40
20.0
 49
10.0
 49
-2.5
 49
1.25
 49
-2.5
 49
1.25
 49
-2.5
  0
LTYPE
  2
LONG4
 70
    64
  3
----- - ----- - ----- - ----- - 
 72
    65
 73
     4
 40
10.0
 49
6.25
 49
-1.25
 49
1.25
 49
-1.25
  0
LTYPE
  2
LONG5
 70
    64
  3
----------  --  ----------  --  
 72
    65
 73
     4
 40
20.0
 49
12.5
 49
-2.5
 49
2.5
 49
-2.5
  0
ENDTAB
  0
TABLE
  2
STYLE
  5
3
100
AcDbSymbolTable
 70
     1
  0
STYLE
  5
10
100
AcDbSymbolTableRecord
100
AcDbTextStyleTableRecord
  2
STANDARD
 70
     0
 40
0.0
 41
1.0
 50
0.0
 71
     0
 42
0.2
  3
txt
  4
bigfont.shx
  0
ENDTAB
  0
TABLE
  2
LAYER
 70
    2
  0
LAYER
  2
_0-0_1
 70
   64
 62
    7
  6
CONTINUOUS
  0
LAYER
  2
ADD_LINE
 70
   64
 62
    7
  6
CONTINUOUS
  0
ENDTAB
  0
ENDSEC
  0
SECTION
  2
BLOCKS
  0
ENDSEC
  0
SECTION
  2
ENTITIES
  0
LINE
  8
_0-0_1
  6
CONTINUOUS
 62
    7
 10
63.092691
 20
45.476226
 11
63.092691
 21
63.726226
  0
LINE
  8
_0-0_1
  6
CONTINUOUS
 62
    7
 10
48.092691
 20
63.726226
 11
48.092691
 21
45.476226
  0
ARC
  8
_0-0_1
  6
CONTINUOUS
 62
    7
 10
60.473171
 20
63.725726
 40
2.61952
 50
0.011079
 51
8.589011
  0
ARC
  8
_0-0_1
  6
CONTINUOUS
 62
    7
 10
60.238401
 20
63.692656
 40
2.856593
 50
8.541558
 51
24.682152
  0
ARC
  8
_0-0_1
  6
CONTINUOUS
 62
    7
 10
59.607501
 20
63.402906
 40
3.550853
 50
24.679193
 51
38.569578
  0
ARC
  8
_0-0_1
  6
CONTINUOUS
 62
    7
 10
58.714971
 20
62.690796
 40
4.692655
 50
38.573387
 51
50.058328
  0
ARC
  8
_0-0_1
  6
CONTINUOUS
 62
    7
 10
57.738791
 20
61.524476
 40
6.213584
 50
50.061516
 51
59.563733
  0
ARC
  8
_0-0_1
  6
CONTINUOUS
 62
    7
 10
56.849931
 20
60.011236
 40
7.968563
 50
59.56526
 51
67.607394
  0
ARC
  8
_0-0_1
  6
CONTINUOUS
 62
    7
 10
56.176071
 20
58.375486
 40
9.737683
 50
67.60791
 51
74.641735
  0
ARC
  8
_0-0_1
  6
CONTINUOUS
 62
    7
 10
55.772601
 20
56.906516
 40
11.261055
 50
74.641744
 51
81.025845
  0
ARC
  8
_0-0_1
  6
CONTINUOUS
 62
    7
 10
55.611581
 20
55.887266
 40
12.292945
 50
81.025591
 51
87.047525
  0
ARC
  8
_0-0_1
  6
CONTINUOUS
 62
    7
 10
55.592691
 20
55.522816
 40
12.657886
 50
87.0471
 51
92.9529
  0
ARC
  8
_0-0_1
  6
CONTINUOUS
 62
    7
 10
55.573731
 20
55.887936
 40
12.292275
 50
92.95231
 51
98.974573
  0
ARC
  8
_0-0_1
  6
CONTINUOUS
 62
    7
 10
55.412491
 20
56.907866
 40
11.259678
 50
98.973764
 51
105.35864
  0
ARC
  8
_0-0_1
  6
CONTINUOUS
 62
    7
 10
55.008621
 20
58.377526
 40
9.735532
 50
105.35748
 51
112.39286
  0
ARC
  8
_0-0_1
  6
CONTINUOUS
 62
    7
 10
54.334111
 20
60.013936
 40
7.965559
 50
112.39108
 51
120.43625
  0
ARC
  8
_0-0_1
  6
CONTINUOUS
 62
    7
 10
53.444351
 20
61.527656
 40
6.209703
 50
120.43329
 51
129.94146
  0
ARC
  8
_0-0_1
  6
CONTINUOUS
 62
    7
 10
52.467131
 20
62.693996
 40
4.688088
 50
129.93605
 51
141.43222
  0
ARC
  8
_0-0_1
  6
CONTINUOUS
 62
    7
 10
51.574051
 20
63.405276
 40
3.546377
 50
141.42161
 51
155.32961
  0
ARC
  8
_0-0_1
  6
CONTINUOUS
 62
    7
 10
50.944211
 20
63.693486
 40
2.85373
 50
155.30969
 51
171.46659
  0
ARC
  8
_0-0_1
  6
CONTINUOUS
 62
    7
 10
50.726901
 20
63.724616
 40
2.634212
 50
171.43495
 51
179.96495
  0
ARC
  8
_0-0_1
  6
CONTINUOUS
 62
    7
 10
59.784541
 20
45.465446
 40
2.558174
 50
0.241433
 51
16.279663
  0
ARC
  8
_0-0_1
  6
CONTINUOUS
 62
    7
 10
60.919061
 20
45.894236
 40
1.352182
 50
12.312092
 51
28.268041
  0
ARC
  8
_0-0_1
  6
CONTINUOUS
 62
    7
 10
26.364234
 20
27.917949
 40
40.3031
 50
27.510869
 51
28.067378
  0
ARC
  8
_0-0_1
  6
CONTINUOUS
 62
    7
 10
58.825151
 20
44.973716
 40
3.641698
 50
31.582029
 51
44.144847
  0
ARC
  8
_0-0_1
  6
CONTINUOUS
 62
    7
 10
59.757061
 20
46.053866
 40
2.22425
 50
40.896264
 51
52.392483
  0
ARC
  8
_0-0_1
  6
CONTINUOUS
 62
    7
 10
21.382295
 20
-2.707056
 40
64.274524
 50
51.817907
 51
52.233334
  0
ARC
  8
_0-0_1
  6
CONTINUOUS
 62
    7
 10
57.174911
 20
43.076034
 40
6.166641
 50
54.600913
 51
63.447465
  0
ARC
  8
_0-0_1
  6
CONTINUOUS
 62
    7
 10
58.147891
 20
45.354706
 40
3.696343
 50
61.148915
 51
69.267064
  0
ARC
  8
_0-0_1
  6
CONTINUOUS
 62
    7
 10
5.031527
 20
-92.862343
 40
151.76824
 50
68.985422
 51
69.188824
  0
ARC
  8
_0-0_1
  6
CONTINUOUS
 62
    7
 10
55.953371
 20
40.318574
 40
9.188865
 50
70.946015
 51
77.760931
  0
ARC
  8
_0-0_1
  6
CONTINUOUS
 62
    7
 10
56.668321
 20
44.348563
 40
5.101282
 50
76.01281
 51
82.483615
  0
ARC
  8
_0-0_1
  6
CONTINUOUS
 62
    7
 10
-17.199435
 20
-508.61649
 40
562.97832
 50
82.392035
 51
82.451214
  0
ARC
  8
_0-0_1
  6
CONTINUOUS
 62
    7
 10
55.598971
 20
38.515803
 40
11.0281
 50
83.960821
 51
90.032608
  0
ARC
  8
_0-0_1
  6
CONTINUOUS
 62
    7
 10
55.592021
 20
38.409033
 40
11.134868
 50
89.996528
 51
96.010042
  0
ARC
  8
_0-0_1
  6
CONTINUOUS
 62
    7
 10
54.863591
 20
43.990326
 40
5.509765
 50
94.553575
 51
100.60317
  0
ARC
  8
_0-0_1
  6
CONTINUOUS
 62
    7
 10
102.87599
 20
-210.32187
 40
264.31449
 50
100.68937
 51
100.81419
  0
ARC
  8
_0-0_1
  6
CONTINUOUS
 62
    7
 10
55.303051
 20
40.064952
 40
9.451795
 50
102.33396
 51
108.95908
  0
ARC
  8
_0-0_1
  6
CONTINUOUS
 62
    7
 10
53.572591
 20
44.741586
 40
4.468181
 50
107.45635
 51
114.36939
  0
ARC
  8
_0-0_1
  6
CONTINUOUS
 62
    7
 10
93.282371
 20
-41.775109
 40
99.662701
 50
114.64159
 51
114.94243
  0
ARC
  8
_0-0_1
  6
CONTINUOUS
 62
    7
 10
54.149341
 20
42.844708
 40
6.435675
 50
116.73778
 51
125.21383
  0
ARC
  8
_0-0_1
  6
CONTINUOUS
 62
    7
 10
52.049011
 20
45.660526
 40
2.925479
 50
123.40596
 51
132.54279
  0
ARC
  8
_0-0_1
  6
CONTINUOUS
 62
    7
 10
83.221101
 20
12.381745
 40
48.523329
 50
133.09258
 51
133.61867
  0
ARC
  8
_0-0_1
  6
CONTINUOUS
 62
    7
 10
52.478201
 20
44.882006
 40
3.790256
 50
136.10228
 51
148.17084
  0
ARC
  8
_0-0_1
  6
CONTINUOUS
 62
    7
 10
50.657871
 20
45.921916
 40
1.696946
 50
145.58752
 51
158.83423
  0
ARC
  8
_0-0_1
  6
CONTINUOUS
 62
    7
 10
100.6384
 20
27.270972
 40
55.043906
 50
159.51458
 51
159.90528
  0
ARC
  8
_0-0_1
  6
CONTINUOUS
 62
    7
 10
51.402171
 20
45.465256
 40
2.559503
 50
163.72452
 51
179.75437
  0
ARC
  8
_0-0_1
  6
CONTINUOUS
 62
    7
 10
60.114561
 20
45.464306
 40
2.478159
 50
0.275721
 51
16.848356
  0
ARC
  8
_0-0_1
  6
CONTINUOUS
 62
    7
 10
61.200151
 20
45.891526
 40
1.318713
 50
12.750518
 51
29.216672
  0
ARC
  8
_0-0_1
  6
CONTINUOUS
 62
    7
 10
30.159654
 20
29.153472
 40
36.584344
 50
28.36678
 51
28.986258
  0
ARC
  8
_0-0_1
  6
CONTINUOUS
 62
    7
 10
59.081611
 20
44.916256
 40
3.653693
 50
32.553015
 51
45.227888
  0
ARC
  8
_0-0_1
  6
CONTINUOUS
 62
    7
 10
59.964421
 20
45.991256
 40
2.272526
 50
41.938578
 51
53.43155
  0
ARC
  8
_0-0_1
  6
CONTINUOUS
 62
    7
 10
23.477908
 20
-2.083992
 40
62.625491
 50
52.826257
 51
53.263067
  0
ARC
  8
_0-0_1
  6
CONTINUOUS
 62
    7
 10
57.300541
 20
42.794043
 40
6.435259
 50
55.593745
 51
64.290567
  0
ARC
  8
_0-0_1
  6
CONTINUOUS
 62
    7
 10
58.262511
 20
45.147486
 40
3.90053
 50
62.024926
 51
69.96012
  0
ARC
  8
_0-0_1
  6
CONTINUOUS
 62
    7
 10
6.099423
 20
-95.613275
 40
154.0157
 50
69.673752
 51
69.880793
  0
ARC
  8
_0-0_1
  6
CONTINUOUS
 62
    7
 10
55.982211
 20
39.709457
 40
9.796428
 50
71.584902
 51
78.192284
  0
ARC
  8
_0-0_1
  6
CONTINUOUS
 62
    7
 10
56.710521
 20
43.9844
 40
5.465308
 50
76.49505
 51
82.7526
  0
ARC
  8
_0-0_1
  6
CONTINUOUS
 62
    7
 10
-16.816557
 20
-526.83074
 40
580.9965
 50
82.660979
 51
82.720416
  0
ARC
  8
_0-0_1
  6
CONTINUOUS
 62
    7
 10
55.599541
 20
37.692804
 40
11.851099
 50
84.175627
 51
90.033115
  0
ARC
  8
_0-0_1
  6
CONTINUOUS
 62
    7
 10
55.591881
 20
37.573356
 40
11.970546
 50
89.996134
 51
95.795124
  0
ARC
  8
_0-0_1
  6
CONTINUOUS
 62
    7
 10
54.836691
 20
43.578598
 40
5.921516
 50
94.392194
 51
100.22641
  0
ARC
  8
_0-0_1
  6
CONTINUOUS
 62
    7
 10
102.36713
 20
-217.57256
 40
271.36278
 50
100.31319
 51
100.43915
  0
ARC
  8
_0-0_1
  6
CONTINUOUS
 62
    7
 10
55.279891
 20
39.425368
 40
10.090217
 50
101.904
 51
108.3188
  0
ARC
  8
_0-0_1
  6
CONTINUOUS
 62
    7
 10
53.489711
 20
44.449756
 40
4.75931
 50
106.87081
 51
113.57464
  0
ARC
  8
_0-0_1
  6
CONTINUOUS
 62
    7
 10
91.887241
 20
-42.337211
 40
99.661037
 50
113.85231
 51
114.16263
  0
ARC
  8
_0-0_1
  6
CONTINUOUS
 62
    7
 10
54.035071
 20
42.534439
 40
6.734374
 50
115.90292
 51
124.21276
  0
ARC
  8
_0-0_1
  6
CONTINUOUS
 62
    7
 10
51.883611
 20
45.533066
 40
3.046361
 50
122.46088
 51
131.44979
  0
ARC
  8
_0-0_1
  6
CONTINUOUS
 62
    7
 10
80.615391
 20
13.704114
 40
45.925071
 50
132.03105
 51
132.59881
  0
ARC
  8
_0-0_1
  6
CONTINUOUS
 62
    7
 10
52.231641
 20
44.813116
 40
3.817016
 50
135.04431
 51
147.17477
  0
ARC
  8
_0-0_1
  6
CONTINUOUS
 62
    7
 10
50.405871
 20
45.901046
 40
1.694711
 50
144.62178
 51
158.02517
  0
ARC
  8
_0-0_1
  6
CONTINUOUS
 62
    7
 10
93.882761
 20
29.055263
 40
48.320949
 50
158.79249
 51
159.24032
  0
ARC
  8
_0-0_1
  6
CONTINUOUS
 62
    7
 10
51.072391
 20
45.464066
 40
2.479731
 50
163.15693
 51
179.71898
  0
LINE
  8
_0-0_1
  6
CONTINUOUS
 62
    7
 10
48.592691
 20
45.476226
 11
48.620161
 21
45.119306
  0
ARC
  8
_0-0_1
  6
CONTINUOUS
 62
    7
 10
52.398151
 20
45.869756
 40
4.34552
 50
190.26144
 51
195.29944
  0
ARC
  8
_0-0_1
  6
CONTINUOUS
 62
    7
 10
60.460011
 20
45.489376
 40
2.632716
 50
343.07926
 51
359.71391
  0
ARC
  8
_0-0_1
  6
CONTINUOUS
 62
    7
 10
60.461721
 20
45.463346
 40
2.631003
 50
0.280627
 51
16.926188
  0
ARC
  8
_0-0_1
  6
CONTINUOUS
 62
    7
 10
61.612271
 20
45.918606
 40
1.40136
 50
12.810576
 51
29.34611
  0
ARC
  8
_0-0_1
  6
CONTINUOUS
 62
    7
 10
28.974451
 20
28.23405
 40
38.522233
 50
28.483292
 51
29.111456
  0
ARC
  8
_0-0_1
  6
CONTINUOUS
 62
    7
 10
59.349751
 20
44.870616
 40
3.897805
 50
32.684853
 51
45.373752
  0
ARC
  8
_0-0_1
  6
CONTINUOUS
 62
    7
 10
60.284021
 20
46.015976
 40
2.430364
 50
42.079195
 51
53.570451
  0
ARC
  8
_0-0_1
  6
CONTINUOUS
 62
    7
 10
21.625615
 20
-5.170376
 40
66.574711
 50
52.961217
 51
53.400765
  0
ARC
  8
_0-0_1
  6
CONTINUOUS
 62
    7
 10
57.431801
 20
42.574347
 40
6.901556
 50
55.726293
 51
64.402495
  0
ARC
  8
_0-0_1
  6
CONTINUOUS
 62
    7
 10
58.455971
 20
45.094736
 40
4.189307
 50
62.141435
 51
70.051827
  0
ARC
  8
_0-0_1
  6
CONTINUOUS
 62
    7
 10
2.952806
 20
-105.41335
 40
164.60524
 50
69.76493
 51
69.972382
  0
ARC
  8
_0-0_1
  6
CONTINUOUS
 62
    7
 10
56.012171
 20
39.236668
 40
10.535761
 50
71.669418
 51
78.249185
  0
ARC
  8
_0-0_1
  6
CONTINUOUS
 62
    7
 10
56.790691
 20
43.831213
 40
5.881517
 50
76.55874
 51
82.788044
  0
ARC
  8
_0-0_1
  6
CONTINUOUS
 62
    7
 10
-21.581266
 20
-567.58262
 40
622.29781
 50
82.696444
 51
82.755896
  0
ARC
  8
_0-0_1
  6
CONTINUOUS
 62
    7
 10
55.600081
 20
37.054547
 40
12.758632
 50
84.203942
 51
90.033168
  0
ARC
  8
_0-0_1
  6
CONTINUOUS
 62
    7
 10
55.591811
 20
36.925296
 40
12.887881
 50
89.996086
 51
95.766803
  0
ARC
  8
_0-0_1
  6
CONTINUOUS
 62
    7
 10
54.782701
 20
43.39144
 40
6.375054
 50
94.370916
 51
100.17674
  0
ARC
  8
_0-0_1
  6
CONTINUOUS
 62
    7
 10
105.4092
 20
-236.14438
 40
290.45835
 50
100.26357
 51
100.38964
  0
ARC
  8
_0-0_1
  6
CONTINUOUS
 62
    7
 10
55.255821
 20
38.929216
 40
10.853611
 50
101.84726
 51
108.23413
  0
ARC
  8
_0-0_1
  6
CONTINUOUS
 62
    7
 10
53.338391
 20
44.338183
 40
5.117901
 50
106.79335
 51
113.46933
  0
ARC
  8
_0-0_1
  6
CONTINUOUS
 62
    7
 10
94.111711
 20
-48.274905
 40
106.30898
 50
113.74763
 51
114.0591
  0
ARC
  8
_0-0_1
  6
CONTINUOUS
 62
    7
 10
53.915411
 20
42.293323
 40
7.224958
 50
115.79203
 51
124.07917
  0
ARC
  8
_0-0_1
  6
CONTINUOUS
 62
    7
 10
51.613961
 20
45.517756
 40
3.266199
 50
122.3348
 51
131.3032
  0
ARC
  8
_0-0_1
  6
CONTINUOUS
 62
    7
 10
81.929221
 20
11.767216
 40
48.632458
 50
131.88852
 51
132.46183
  0
ARC
  8
_0-0_1
  6
CONTINUOUS
 62
    7
 10
51.973401
 20
44.758926
 40
4.074124
 50
134.90187
 51
147.03951
  0
ARC
  8
_0-0_1
  6
CONTINUOUS
 62
    7
 10
50.025841
 20
45.926036
 40
1.806841
 50
144.49102
 51
157.91422
  0
ARC
  8
_0-0_1
  6
CONTINUOUS
 62
    7
 10
95.535791
 20
28.203051
 40
50.645786
 50
158.69368
 51
159.14963
  0
ARC
  8
_0-0_1
  6
CONTINUOUS
 62
    7
 10
50.725371
 20
45.463086
 40
2.632716
 50
163.07926
 51
179.71391
  0
LINE
  8
_0-0_1
  6
CONTINUOUS
 62
    7
 10
48.092691
 20
45.476226
 11
48.122131
 21
45.095636
  0
ARC
  8
_0-0_1
  6
DASHED3
 62
    7
 10
55.575552
 20
36.048441
 40
11.292271
 50
118.44197
 51
61.558025
  0
ARC
  8
_0-0_1
  6
DASHED3
 62
    7
 10
62.049123
 20
48.000123
 40
2.3
 50
188.42559
 51
241.55802
  0
ARC
  8
_0-0_1
  6
DASHED3
 62
    7
 10
49.101981
 20
48.000123
 40
2.3
 50
298.44198
 51
351.5744
  0
ARC
  8
_0-0_1
  6
DASHED3
 62
    7
 10
55.575552
 20
33.571671
 40
13.521646
 50
105.33782
 51
113.43721
  0
ARC
  8
_0-0_1
  6
DASHED3
 62
    7
 10
55.575552
 20
33.571671
 40
13.521646
 50
66.562782
 51
74.662178
  0
ARC
  8
_0-0_1
  6
CONTINUOUS
 62
    7
 10
15.649601
 20
62.749406
 40
50.645786
 50
339.01507
 51
339.14963
  0
ARC
  8
_0-0_1
  6
CONTINUOUS
 62
    7
 10
60.112991
 20
45.488386
 40
2.479731
 50
347.30595
 51
359.71898
  0
ARC
  8
_0-0_1
  6
CONTINUOUS
 62
    7
 10
59.783211
 20
45.487196
 40
2.559503
 50
351.51024
 51
359.75437
  0
ARC
  8
_0-0_1
  6
CONTINUOUS
 62
    7
 10
50.223981
 20
45.284716
 40
2.094062
 50
195.55613
 51
198.23616
  0
ARC
  8
_0-0_1
  6
CONTINUOUS
 62
    7
 10
52.642491
 20
45.843686
 40
4.087037
 50
190.20902
 51
192.37298
  0
LINE
  8
_0-0_1
  6
CONTINUOUS
 62
    7
 10
48.842691
 20
45.476226
 11
48.868119
 21
45.132808
  0
LINE
  8
_0-0_1
  6
DASHED3
 62
    7
 10
59.613221
 20
48.748193
 11
59.773947
 21
47.663116
  0
LINE
  8
_0-0_1
  6
DASHED3
 62
    7
 10
51.534004
 20
48.722006
 11
51.377157
 21
47.663116
  0
TEXT
  8
_0-0_1
 62
    7
 10
47.062494
 20
14.493936
 40
5
 41
0.966667
 50
0
  1
YL1305
  0
ENDSEC
  0
EOF
