  0
SECTION
  2
HEADER
  9
$ACADVER
  1
AC1009
  9
$INSBASE
 10
0
 20
0
 30
0
  9
$EXTMIN
 10
0
 20
0
  9
$EXTMAX
 10
118.8
 20
84
  9
$LIMMIN
 10
0
 20
0
  9
$LIMMAX
 10
118.8
 20
84
  9
$LTSCALE
 40
0.2
  0
ENDSEC
  0
SECTION
  2
TABLES
  0
TABLE
  2
LTYPE
 70
     9
  0
LTYPE
  2
CONTINUOUS
 70
    64
  3
実線
 72
    65
 73
     0
 40
0.0
  0
LTYPE
  2
DASHED1
 70
    64
  3
--  --  --  --  --  --  --  --  
 72
    65
 73
     2
 40
2.5
 49
1.25
 49
-1.25
  0
LTYPE
  2
DASHED2
 70
    64
  3
----    ----    ----    ----    
 72
    65
 73
     2
 40
5.0
 49
2.5
 49
-2.5
  0
LTYPE
  2
DASHED3
 70
    64
  3
------  ------  ------  ------  
 72
    65
 73
     2
 40
5.0
 49
3.75
 49
-1.25
  0
LTYPE
  2
CENTER1
 70
    64
  3
----- - ----- - ----- - ----- - 
 72
    65
 73
     4
 40
10.0
 49
6.25
 49
-1.25
 49
1.25
 49
-1.25
  0
LTYPE
  2
CENTER2
 70
    64
  3
----------  --  ----------  --  
 72
    65
 73
     4
 40
20.0
 49
12.5
 49
-2.5
 49
2.5
 49
-2.5
  0
LTYPE
  2
PHANTOM1
 70
    64
  3
--- - - --- - - --- - - --- - - 
 72
    65
 73
     6
 40
10.0
 49
3.25
 49
-1.25
 49
1.25
 49
-1.25
 49
1.25
 49
-1.25
  0
LTYPE
  2
PHANTOM2
 70
    64
  3
--------  -  -  --------  -  -  
 72
    65
 73
     6
 40
20.0
 49
10.0
 49
-2.5
 49
1.25
 49
-2.5
 49
1.25
 49
-2.5
  0
LTYPE
  2
DOT
 70
    64
  3
-   -   -   -   -   -   -   -   
 72
    65
 73
     2
 40
2.5
 49
0.625
 49
-1.875
  0
LTYPE
  2
DUMMY
 70
    64
  3
ダミー
 72
    65
 73
     0
 40
0.0
  0
LTYPE
  2
RAND1
 70
    64
  3
----- - ----- - ----- - ----- - 
 72
    65
 73
     4
 40
10.0
 49
6.25
 49
-1.25
 49
1.25
 49
-1.25
  0
LTYPE
  2
RAND2
 70
    64
  3
----------  --  ----------  --  
 72
    65
 73
     4
 40
20.0
 49
12.5
 49
-2.5
 49
2.5
 49
-2.5
  0
LTYPE
  2
RAND3
 70
    64
  3
--- - - --- - - --- - - --- - - 
 72
    65
 73
     6
 40
10.0
 49
3.25
 49
-1.25
 49
1.25
 49
-1.25
 49
1.25
 49
-1.25
  0
LTYPE
  2
RAND4
 70
    64
  3
--------  -  -  --------  -  -  
 72
    65
 73
     6
 40
20.0
 49
10.0
 49
-2.5
 49
1.25
 49
-2.5
 49
1.25
 49
-2.5
  0
LTYPE
  2
RAND5
 70
    64
  3
----- - ----- - ----- - ----- - 
 72
    65
 73
     4
 40
10.0
 49
6.25
 49
-1.25
 49
1.25
 49
-1.25
  0
LTYPE
  2
LONG1
 70
    64
  3
----------  --  ----------  --  
 72
    65
 73
     4
 40
20.0
 49
12.5
 49
-2.5
 49
2.5
 49
-2.5
  0
LTYPE
  2
LONG2
 70
    64
  3
--- - - --- - - --- - - --- - - 
 72
    65
 73
     6
 40
10.0
 49
3.25
 49
-1.25
 49
1.25
 49
-1.25
 49
1.25
 49
-1.25
  0
LTYPE
  2
LONG3
 70
    64
  3
--------  -  -  --------  -  -  
 72
    65
 73
     6
 40
20.0
 49
10.0
 49
-2.5
 49
1.25
 49
-2.5
 49
1.25
 49
-2.5
  0
LTYPE
  2
LONG4
 70
    64
  3
----- - ----- - ----- - ----- - 
 72
    65
 73
     4
 40
10.0
 49
6.25
 49
-1.25
 49
1.25
 49
-1.25
  0
LTYPE
  2
LONG5
 70
    64
  3
----------  --  ----------  --  
 72
    65
 73
     4
 40
20.0
 49
12.5
 49
-2.5
 49
2.5
 49
-2.5
  0
ENDTAB
  0
TABLE
  2
STYLE
  5
3
100
AcDbSymbolTable
 70
     1
  0
STYLE
  5
10
100
AcDbSymbolTableRecord
100
AcDbTextStyleTableRecord
  2
STANDARD
 70
     0
 40
0.0
 41
1.0
 50
0.0
 71
     0
 42
0.2
  3
txt
  4
bigfont.shx
  0
ENDTAB
  0
TABLE
  2
LAYER
 70
    2
  0
LAYER
  2
_0-0_1
 70
   64
 62
    7
  6
CONTINUOUS
  0
LAYER
  2
ADD_LINE
 70
   64
 62
    7
  6
CONTINUOUS
  0
ENDTAB
  0
ENDSEC
  0
SECTION
  2
BLOCKS
  0
ENDSEC
  0
SECTION
  2
ENTITIES
  0
LINE
  8
_0-0_1
  6
CONTINUOUS
 62
    7
 10
66.680203
 20
46.87088
 11
66.680203
 21
65.12088
  0
LINE
  8
_0-0_1
  6
CONTINUOUS
 62
    7
 10
51.680203
 20
65.12088
 11
51.680203
 21
46.87088
  0
ARC
  8
_0-0_1
  6
CONTINUOUS
 62
    7
 10
64.060683
 20
65.12038
 40
2.61952
 50
0.011079
 51
8.589011
  0
ARC
  8
_0-0_1
  6
CONTINUOUS
 62
    7
 10
63.825913
 20
65.08731
 40
2.856593
 50
8.541558
 51
24.682152
  0
ARC
  8
_0-0_1
  6
CONTINUOUS
 62
    7
 10
63.195013
 20
64.79756
 40
3.550853
 50
24.679193
 51
38.569578
  0
ARC
  8
_0-0_1
  6
CONTINUOUS
 62
    7
 10
62.302483
 20
64.08545
 40
4.692655
 50
38.573387
 51
50.058328
  0
ARC
  8
_0-0_1
  6
CONTINUOUS
 62
    7
 10
61.326303
 20
62.91913
 40
6.213584
 50
50.061516
 51
59.563733
  0
ARC
  8
_0-0_1
  6
CONTINUOUS
 62
    7
 10
60.437443
 20
61.40589
 40
7.968563
 50
59.56526
 51
67.607394
  0
ARC
  8
_0-0_1
  6
CONTINUOUS
 62
    7
 10
59.763583
 20
59.77014
 40
9.737683
 50
67.60791
 51
74.641735
  0
ARC
  8
_0-0_1
  6
CONTINUOUS
 62
    7
 10
59.360113
 20
58.30117
 40
11.261055
 50
74.641744
 51
81.025845
  0
ARC
  8
_0-0_1
  6
CONTINUOUS
 62
    7
 10
59.199093
 20
57.28192
 40
12.292945
 50
81.025591
 51
87.047525
  0
ARC
  8
_0-0_1
  6
CONTINUOUS
 62
    7
 10
59.180203
 20
56.91747
 40
12.657886
 50
87.0471
 51
92.9529
  0
ARC
  8
_0-0_1
  6
CONTINUOUS
 62
    7
 10
59.161243
 20
57.28259
 40
12.292275
 50
92.95231
 51
98.974573
  0
ARC
  8
_0-0_1
  6
CONTINUOUS
 62
    7
 10
59.000003
 20
58.30252
 40
11.259678
 50
98.973764
 51
105.35864
  0
ARC
  8
_0-0_1
  6
CONTINUOUS
 62
    7
 10
58.596133
 20
59.77218
 40
9.735532
 50
105.35748
 51
112.39286
  0
ARC
  8
_0-0_1
  6
CONTINUOUS
 62
    7
 10
57.921623
 20
61.40859
 40
7.965559
 50
112.39108
 51
120.43625
  0
ARC
  8
_0-0_1
  6
CONTINUOUS
 62
    7
 10
57.031863
 20
62.92231
 40
6.209703
 50
120.43329
 51
129.94146
  0
ARC
  8
_0-0_1
  6
CONTINUOUS
 62
    7
 10
56.054643
 20
64.08865
 40
4.688088
 50
129.93605
 51
141.43222
  0
ARC
  8
_0-0_1
  6
CONTINUOUS
 62
    7
 10
55.161563
 20
64.79993
 40
3.546377
 50
141.42161
 51
155.32961
  0
ARC
  8
_0-0_1
  6
CONTINUOUS
 62
    7
 10
54.531723
 20
65.08814
 40
2.85373
 50
155.30969
 51
171.46659
  0
ARC
  8
_0-0_1
  6
CONTINUOUS
 62
    7
 10
54.314413
 20
65.11927
 40
2.634212
 50
171.43495
 51
179.96495
  0
ARC
  8
_0-0_1
  6
CONTINUOUS
 62
    7
 10
63.372053
 20
46.8601
 40
2.558174
 50
0.241433
 51
16.279663
  0
ARC
  8
_0-0_1
  6
CONTINUOUS
 62
    7
 10
64.506573
 20
47.28889
 40
1.352182
 50
12.312092
 51
28.268041
  0
ARC
  8
_0-0_1
  6
CONTINUOUS
 62
    7
 10
29.951746
 20
29.312603
 40
40.3031
 50
27.510869
 51
28.067378
  0
ARC
  8
_0-0_1
  6
CONTINUOUS
 62
    7
 10
62.412663
 20
46.36837
 40
3.641698
 50
31.582029
 51
44.144847
  0
ARC
  8
_0-0_1
  6
CONTINUOUS
 62
    7
 10
63.344573
 20
47.44852
 40
2.22425
 50
40.896264
 51
52.392483
  0
ARC
  8
_0-0_1
  6
CONTINUOUS
 62
    7
 10
24.969807
 20
-1.3124015
 40
64.274524
 50
51.817907
 51
52.233334
  0
ARC
  8
_0-0_1
  6
CONTINUOUS
 62
    7
 10
60.762423
 20
44.470688
 40
6.166641
 50
54.600913
 51
63.447465
  0
ARC
  8
_0-0_1
  6
CONTINUOUS
 62
    7
 10
61.735403
 20
46.74936
 40
3.696343
 50
61.148915
 51
69.267064
  0
ARC
  8
_0-0_1
  6
CONTINUOUS
 62
    7
 10
8.619039
 20
-91.467688
 40
151.76824
 50
68.985422
 51
69.188824
  0
ARC
  8
_0-0_1
  6
CONTINUOUS
 62
    7
 10
59.540883
 20
41.713228
 40
9.188865
 50
70.946015
 51
77.760931
  0
ARC
  8
_0-0_1
  6
CONTINUOUS
 62
    7
 10
60.255833
 20
45.743217
 40
5.101282
 50
76.01281
 51
82.483615
  0
ARC
  8
_0-0_1
  6
CONTINUOUS
 62
    7
 10
-13.611923
 20
-507.22183
 40
562.97832
 50
82.392035
 51
82.451214
  0
ARC
  8
_0-0_1
  6
CONTINUOUS
 62
    7
 10
59.186483
 20
39.910457
 40
11.0281
 50
83.960821
 51
90.032608
  0
ARC
  8
_0-0_1
  6
CONTINUOUS
 62
    7
 10
59.179533
 20
39.803687
 40
11.134868
 50
89.996528
 51
96.010042
  0
ARC
  8
_0-0_1
  6
CONTINUOUS
 62
    7
 10
58.451103
 20
45.38498
 40
5.509765
 50
94.553575
 51
100.60317
  0
ARC
  8
_0-0_1
  6
CONTINUOUS
 62
    7
 10
106.4635
 20
-208.92721
 40
264.31449
 50
100.68937
 51
100.81419
  0
ARC
  8
_0-0_1
  6
CONTINUOUS
 62
    7
 10
58.890563
 20
41.459606
 40
9.451795
 50
102.33396
 51
108.95908
  0
ARC
  8
_0-0_1
  6
CONTINUOUS
 62
    7
 10
57.160103
 20
46.13624
 40
4.468181
 50
107.45635
 51
114.36939
  0
ARC
  8
_0-0_1
  6
CONTINUOUS
 62
    7
 10
96.869883
 20
-40.380454
 40
99.662701
 50
114.64159
 51
114.94243
  0
ARC
  8
_0-0_1
  6
CONTINUOUS
 62
    7
 10
57.736853
 20
44.239362
 40
6.435675
 50
116.73778
 51
125.21383
  0
ARC
  8
_0-0_1
  6
CONTINUOUS
 62
    7
 10
55.636523
 20
47.05518
 40
2.925479
 50
123.40596
 51
132.54279
  0
ARC
  8
_0-0_1
  6
CONTINUOUS
 62
    7
 10
86.808613
 20
13.776399
 40
48.523329
 50
133.09258
 51
133.61867
  0
ARC
  8
_0-0_1
  6
CONTINUOUS
 62
    7
 10
56.065713
 20
46.27666
 40
3.790256
 50
136.10228
 51
148.17084
  0
ARC
  8
_0-0_1
  6
CONTINUOUS
 62
    7
 10
54.245383
 20
47.31657
 40
1.696946
 50
145.58752
 51
158.83423
  0
ARC
  8
_0-0_1
  6
CONTINUOUS
 62
    7
 10
104.22591
 20
28.665626
 40
55.043906
 50
159.51458
 51
159.90528
  0
ARC
  8
_0-0_1
  6
CONTINUOUS
 62
    7
 10
54.989683
 20
46.85991
 40
2.559503
 50
163.72452
 51
179.75437
  0
ARC
  8
_0-0_1
  6
CONTINUOUS
 62
    7
 10
63.702073
 20
46.85896
 40
2.478159
 50
0.275721
 51
16.848356
  0
ARC
  8
_0-0_1
  6
CONTINUOUS
 62
    7
 10
64.787663
 20
47.28618
 40
1.318713
 50
12.750518
 51
29.216672
  0
ARC
  8
_0-0_1
  6
CONTINUOUS
 62
    7
 10
33.747166
 20
30.548126
 40
36.584344
 50
28.36678
 51
28.986258
  0
ARC
  8
_0-0_1
  6
CONTINUOUS
 62
    7
 10
62.669123
 20
46.31091
 40
3.653693
 50
32.553015
 51
45.227888
  0
ARC
  8
_0-0_1
  6
CONTINUOUS
 62
    7
 10
63.551933
 20
47.38591
 40
2.272526
 50
41.938578
 51
53.43155
  0
ARC
  8
_0-0_1
  6
CONTINUOUS
 62
    7
 10
27.06542
 20
-0.6893375
 40
62.625491
 50
52.826257
 51
53.263067
  0
ARC
  8
_0-0_1
  6
CONTINUOUS
 62
    7
 10
60.888053
 20
44.188697
 40
6.435259
 50
55.593745
 51
64.290567
  0
ARC
  8
_0-0_1
  6
CONTINUOUS
 62
    7
 10
61.850023
 20
46.54214
 40
3.90053
 50
62.024926
 51
69.96012
  0
ARC
  8
_0-0_1
  6
CONTINUOUS
 62
    7
 10
9.686935
 20
-94.21862
 40
154.0157
 50
69.673752
 51
69.880793
  0
ARC
  8
_0-0_1
  6
CONTINUOUS
 62
    7
 10
59.569723
 20
41.104111
 40
9.796428
 50
71.584902
 51
78.192284
  0
ARC
  8
_0-0_1
  6
CONTINUOUS
 62
    7
 10
60.298033
 20
45.379054
 40
5.465308
 50
76.49505
 51
82.7526
  0
ARC
  8
_0-0_1
  6
CONTINUOUS
 62
    7
 10
-13.229045
 20
-525.43608
 40
580.9965
 50
82.660979
 51
82.720416
  0
ARC
  8
_0-0_1
  6
CONTINUOUS
 62
    7
 10
59.187053
 20
39.087458
 40
11.851099
 50
84.175627
 51
90.033115
  0
ARC
  8
_0-0_1
  6
CONTINUOUS
 62
    7
 10
59.179393
 20
38.96801
 40
11.970546
 50
89.996134
 51
95.795124
  0
ARC
  8
_0-0_1
  6
CONTINUOUS
 62
    7
 10
58.424203
 20
44.973252
 40
5.921516
 50
94.392194
 51
100.22641
  0
ARC
  8
_0-0_1
  6
CONTINUOUS
 62
    7
 10
105.95464
 20
-216.1779
 40
271.36278
 50
100.31319
 51
100.43915
  0
ARC
  8
_0-0_1
  6
CONTINUOUS
 62
    7
 10
58.867403
 20
40.820022
 40
10.090217
 50
101.904
 51
108.3188
  0
ARC
  8
_0-0_1
  6
CONTINUOUS
 62
    7
 10
57.077223
 20
45.84441
 40
4.75931
 50
106.87081
 51
113.57464
  0
ARC
  8
_0-0_1
  6
CONTINUOUS
 62
    7
 10
95.474753
 20
-40.942556
 40
99.661037
 50
113.85231
 51
114.16263
  0
ARC
  8
_0-0_1
  6
CONTINUOUS
 62
    7
 10
57.622583
 20
43.929093
 40
6.734374
 50
115.90292
 51
124.21276
  0
ARC
  8
_0-0_1
  6
CONTINUOUS
 62
    7
 10
55.471123
 20
46.92772
 40
3.046361
 50
122.46088
 51
131.44979
  0
ARC
  8
_0-0_1
  6
CONTINUOUS
 62
    7
 10
84.202903
 20
15.098768
 40
45.925071
 50
132.03105
 51
132.59881
  0
ARC
  8
_0-0_1
  6
CONTINUOUS
 62
    7
 10
55.819153
 20
46.20777
 40
3.817016
 50
135.04431
 51
147.17477
  0
ARC
  8
_0-0_1
  6
CONTINUOUS
 62
    7
 10
53.993383
 20
47.2957
 40
1.694711
 50
144.62178
 51
158.02517
  0
ARC
  8
_0-0_1
  6
CONTINUOUS
 62
    7
 10
97.470273
 20
30.449917
 40
48.320949
 50
158.79249
 51
159.24032
  0
ARC
  8
_0-0_1
  6
CONTINUOUS
 62
    7
 10
54.659903
 20
46.85872
 40
2.479731
 50
163.15693
 51
179.71898
  0
LINE
  8
_0-0_1
  6
CONTINUOUS
 62
    7
 10
52.180203
 20
46.87088
 11
52.207673
 21
46.51396
  0
ARC
  8
_0-0_1
  6
CONTINUOUS
 62
    7
 10
55.985663
 20
47.26441
 40
4.34552
 50
190.26144
 51
195.29944
  0
ARC
  8
_0-0_1
  6
CONTINUOUS
 62
    7
 10
64.047523
 20
46.88403
 40
2.632716
 50
343.07926
 51
359.71391
  0
ARC
  8
_0-0_1
  6
CONTINUOUS
 62
    7
 10
64.049233
 20
46.858
 40
2.631003
 50
0.280627
 51
16.926188
  0
ARC
  8
_0-0_1
  6
CONTINUOUS
 62
    7
 10
65.199783
 20
47.31326
 40
1.40136
 50
12.810576
 51
29.34611
  0
ARC
  8
_0-0_1
  6
CONTINUOUS
 62
    7
 10
32.561963
 20
29.628704
 40
38.522233
 50
28.483292
 51
29.111456
  0
ARC
  8
_0-0_1
  6
CONTINUOUS
 62
    7
 10
62.937263
 20
46.26527
 40
3.897805
 50
32.684853
 51
45.373752
  0
ARC
  8
_0-0_1
  6
CONTINUOUS
 62
    7
 10
63.871533
 20
47.41063
 40
2.430364
 50
42.079195
 51
53.570451
  0
ARC
  8
_0-0_1
  6
CONTINUOUS
 62
    7
 10
25.213127
 20
-3.7757215
 40
66.574711
 50
52.961217
 51
53.400765
  0
ARC
  8
_0-0_1
  6
CONTINUOUS
 62
    7
 10
61.019313
 20
43.969001
 40
6.901556
 50
55.726293
 51
64.402495
  0
ARC
  8
_0-0_1
  6
CONTINUOUS
 62
    7
 10
62.043483
 20
46.48939
 40
4.189307
 50
62.141435
 51
70.051827
  0
ARC
  8
_0-0_1
  6
CONTINUOUS
 62
    7
 10
6.540318
 20
-104.0187
 40
164.60524
 50
69.76493
 51
69.972382
  0
ARC
  8
_0-0_1
  6
CONTINUOUS
 62
    7
 10
59.599683
 20
40.631322
 40
10.535761
 50
71.669418
 51
78.249185
  0
ARC
  8
_0-0_1
  6
CONTINUOUS
 62
    7
 10
60.378203
 20
45.225867
 40
5.881517
 50
76.55874
 51
82.788044
  0
ARC
  8
_0-0_1
  6
CONTINUOUS
 62
    7
 10
-17.993754
 20
-566.18796
 40
622.29781
 50
82.696444
 51
82.755896
  0
ARC
  8
_0-0_1
  6
CONTINUOUS
 62
    7
 10
59.187593
 20
38.449201
 40
12.758632
 50
84.203942
 51
90.033168
  0
ARC
  8
_0-0_1
  6
CONTINUOUS
 62
    7
 10
59.179323
 20
38.31995
 40
12.887881
 50
89.996086
 51
95.766803
  0
ARC
  8
_0-0_1
  6
CONTINUOUS
 62
    7
 10
58.370213
 20
44.786094
 40
6.375054
 50
94.370916
 51
100.17674
  0
ARC
  8
_0-0_1
  6
CONTINUOUS
 62
    7
 10
108.99671
 20
-234.74972
 40
290.45835
 50
100.26357
 51
100.38964
  0
ARC
  8
_0-0_1
  6
CONTINUOUS
 62
    7
 10
58.843333
 20
40.32387
 40
10.853611
 50
101.84726
 51
108.23413
  0
ARC
  8
_0-0_1
  6
CONTINUOUS
 62
    7
 10
56.925903
 20
45.732837
 40
5.117901
 50
106.79335
 51
113.46933
  0
ARC
  8
_0-0_1
  6
CONTINUOUS
 62
    7
 10
97.699223
 20
-46.88025
 40
106.30898
 50
113.74763
 51
114.0591
  0
ARC
  8
_0-0_1
  6
CONTINUOUS
 62
    7
 10
57.502923
 20
43.687977
 40
7.224958
 50
115.79203
 51
124.07917
  0
ARC
  8
_0-0_1
  6
CONTINUOUS
 62
    7
 10
55.201473
 20
46.91241
 40
3.266199
 50
122.3348
 51
131.3032
  0
ARC
  8
_0-0_1
  6
CONTINUOUS
 62
    7
 10
85.516733
 20
13.16187
 40
48.632458
 50
131.88852
 51
132.46183
  0
ARC
  8
_0-0_1
  6
CONTINUOUS
 62
    7
 10
55.560913
 20
46.15358
 40
4.074124
 50
134.90187
 51
147.03951
  0
ARC
  8
_0-0_1
  6
CONTINUOUS
 62
    7
 10
53.613353
 20
47.32069
 40
1.806841
 50
144.49102
 51
157.91422
  0
ARC
  8
_0-0_1
  6
CONTINUOUS
 62
    7
 10
99.123303
 20
29.597705
 40
50.645786
 50
158.69368
 51
159.14963
  0
ARC
  8
_0-0_1
  6
CONTINUOUS
 62
    7
 10
54.312883
 20
46.85774
 40
2.632716
 50
163.07926
 51
179.71391
  0
LINE
  8
_0-0_1
  6
CONTINUOUS
 62
    7
 10
51.680203
 20
46.87088
 11
51.709643
 21
46.49029
  0
ARC
  8
_0-0_1
  6
DASHED3
 62
    7
 10
59.163064
 20
37.443095
 40
11.292271
 50
118.44197
 51
61.558025
  0
ARC
  8
_0-0_1
  6
DASHED3
 62
    7
 10
65.636635
 20
49.394777
 40
2.3
 50
188.42559
 51
241.55802
  0
ARC
  8
_0-0_1
  6
DASHED3
 62
    7
 10
52.689493
 20
49.394777
 40
2.3
 50
298.44198
 51
351.5744
  0
ARC
  8
_0-0_1
  6
DASHED3
 62
    7
 10
59.163064
 20
34.966325
 40
13.521646
 50
105.33782
 51
113.43721
  0
ARC
  8
_0-0_1
  6
DASHED3
 62
    7
 10
59.163064
 20
34.966325
 40
13.521646
 50
66.562782
 51
74.662178
  0
ARC
  8
_0-0_1
  6
CONTINUOUS
 62
    7
 10
19.237113
 20
64.14406
 40
50.645786
 50
339.01507
 51
339.14963
  0
ARC
  8
_0-0_1
  6
CONTINUOUS
 62
    7
 10
63.700503
 20
46.88304
 40
2.479731
 50
347.30595
 51
359.71898
  0
ARC
  8
_0-0_1
  6
CONTINUOUS
 62
    7
 10
63.370723
 20
46.88185
 40
2.559503
 50
351.51024
 51
359.75437
  0
ARC
  8
_0-0_1
  6
CONTINUOUS
 62
    7
 10
53.811493
 20
46.67937
 40
2.094062
 50
195.55613
 51
198.23616
  0
ARC
  8
_0-0_1
  6
CONTINUOUS
 62
    7
 10
56.230003
 20
47.23834
 40
4.087037
 50
190.20902
 51
192.37298
  0
LINE
  8
_0-0_1
  6
CONTINUOUS
 62
    7
 10
52.430203
 20
46.87088
 11
52.455631
 21
46.527462
  0
LINE
  8
_0-0_1
  6
DASHED3
 62
    7
 10
63.200733
 20
50.142848
 11
63.361459
 21
49.05777
  0
LINE
  8
_0-0_1
  6
DASHED3
 62
    7
 10
55.121516
 20
50.11666
 11
54.96467
 21
49.05777
  0
TEXT
  8
_0-0_1
 62
    7
 10
51.122913
 20
16.196692
 40
5
 41
0.966667
 50
0
  1
YL1307
  0
ENDSEC
  0
EOF
