  0
SECTION
  2
HEADER
  9
$ACADVER
  1
AC1009
  9
$INSBASE
 10
0
 20
0
 30
0
  9
$EXTMIN
 10
0
 20
0
  9
$EXTMAX
 10
118.8
 20
84
  9
$LIMMIN
 10
0
 20
0
  9
$LIMMAX
 10
118.8
 20
84
  9
$LTSCALE
 40
0.2
  0
ENDSEC
  0
SECTION
  2
TABLES
  0
TABLE
  2
LTYPE
 70
     9
  0
LTYPE
  2
CONTINUOUS
 70
    64
  3
実線
 72
    65
 73
     0
 40
0.0
  0
LTYPE
  2
DASHED1
 70
    64
  3
--  --  --  --  --  --  --  --  
 72
    65
 73
     2
 40
2.5
 49
1.25
 49
-1.25
  0
LTYPE
  2
DASHED2
 70
    64
  3
----    ----    ----    ----    
 72
    65
 73
     2
 40
5.0
 49
2.5
 49
-2.5
  0
LTYPE
  2
DASHED3
 70
    64
  3
------  ------  ------  ------  
 72
    65
 73
     2
 40
5.0
 49
3.75
 49
-1.25
  0
LTYPE
  2
CENTER1
 70
    64
  3
----- - ----- - ----- - ----- - 
 72
    65
 73
     4
 40
10.0
 49
6.25
 49
-1.25
 49
1.25
 49
-1.25
  0
LTYPE
  2
CENTER2
 70
    64
  3
----------  --  ----------  --  
 72
    65
 73
     4
 40
20.0
 49
12.5
 49
-2.5
 49
2.5
 49
-2.5
  0
LTYPE
  2
PHANTOM1
 70
    64
  3
--- - - --- - - --- - - --- - - 
 72
    65
 73
     6
 40
10.0
 49
3.25
 49
-1.25
 49
1.25
 49
-1.25
 49
1.25
 49
-1.25
  0
LTYPE
  2
PHANTOM2
 70
    64
  3
--------  -  -  --------  -  -  
 72
    65
 73
     6
 40
20.0
 49
10.0
 49
-2.5
 49
1.25
 49
-2.5
 49
1.25
 49
-2.5
  0
LTYPE
  2
DOT
 70
    64
  3
-   -   -   -   -   -   -   -   
 72
    65
 73
     2
 40
2.5
 49
0.625
 49
-1.875
  0
LTYPE
  2
DUMMY
 70
    64
  3
ダミー
 72
    65
 73
     0
 40
0.0
  0
LTYPE
  2
RAND1
 70
    64
  3
----- - ----- - ----- - ----- - 
 72
    65
 73
     4
 40
10.0
 49
6.25
 49
-1.25
 49
1.25
 49
-1.25
  0
LTYPE
  2
RAND2
 70
    64
  3
----------  --  ----------  --  
 72
    65
 73
     4
 40
20.0
 49
12.5
 49
-2.5
 49
2.5
 49
-2.5
  0
LTYPE
  2
RAND3
 70
    64
  3
--- - - --- - - --- - - --- - - 
 72
    65
 73
     6
 40
10.0
 49
3.25
 49
-1.25
 49
1.25
 49
-1.25
 49
1.25
 49
-1.25
  0
LTYPE
  2
RAND4
 70
    64
  3
--------  -  -  --------  -  -  
 72
    65
 73
     6
 40
20.0
 49
10.0
 49
-2.5
 49
1.25
 49
-2.5
 49
1.25
 49
-2.5
  0
LTYPE
  2
RAND5
 70
    64
  3
----- - ----- - ----- - ----- - 
 72
    65
 73
     4
 40
10.0
 49
6.25
 49
-1.25
 49
1.25
 49
-1.25
  0
LTYPE
  2
LONG1
 70
    64
  3
----------  --  ----------  --  
 72
    65
 73
     4
 40
20.0
 49
12.5
 49
-2.5
 49
2.5
 49
-2.5
  0
LTYPE
  2
LONG2
 70
    64
  3
--- - - --- - - --- - - --- - - 
 72
    65
 73
     6
 40
10.0
 49
3.25
 49
-1.25
 49
1.25
 49
-1.25
 49
1.25
 49
-1.25
  0
LTYPE
  2
LONG3
 70
    64
  3
--------  -  -  --------  -  -  
 72
    65
 73
     6
 40
20.0
 49
10.0
 49
-2.5
 49
1.25
 49
-2.5
 49
1.25
 49
-2.5
  0
LTYPE
  2
LONG4
 70
    64
  3
----- - ----- - ----- - ----- - 
 72
    65
 73
     4
 40
10.0
 49
6.25
 49
-1.25
 49
1.25
 49
-1.25
  0
LTYPE
  2
LONG5
 70
    64
  3
----------  --  ----------  --  
 72
    65
 73
     4
 40
20.0
 49
12.5
 49
-2.5
 49
2.5
 49
-2.5
  0
ENDTAB
  0
TABLE
  2
STYLE
  5
3
100
AcDbSymbolTable
 70
     1
  0
STYLE
  5
10
100
AcDbSymbolTableRecord
100
AcDbTextStyleTableRecord
  2
STANDARD
 70
     0
 40
0.0
 41
1.0
 50
0.0
 71
     0
 42
0.2
  3
txt
  4
bigfont.shx
  0
ENDTAB
  0
TABLE
  2
LAYER
 70
    2
  0
LAYER
  2
_0-0_1
 70
   64
 62
    7
  6
CONTINUOUS
  0
LAYER
  2
ADD_LINE
 70
   64
 62
    7
  6
CONTINUOUS
  0
ENDTAB
  0
ENDSEC
  0
SECTION
  2
BLOCKS
  0
ENDSEC
  0
SECTION
  2
ENTITIES
  0
LINE
  8
_0-0_1
  6
CONTINUOUS
 62
    7
 10
62.161997
 20
47.392211
 11
62.161997
 21
65.642211
  0
LINE
  8
_0-0_1
  6
CONTINUOUS
 62
    7
 10
47.161997
 20
65.642211
 11
47.161997
 21
47.392211
  0
ARC
  8
_0-0_1
  6
CONTINUOUS
 62
    7
 10
59.542477
 20
65.641711
 40
2.61952
 50
0.011079
 51
8.589011
  0
ARC
  8
_0-0_1
  6
CONTINUOUS
 62
    7
 10
59.307707
 20
65.608641
 40
2.856593
 50
8.541558
 51
24.682152
  0
ARC
  8
_0-0_1
  6
CONTINUOUS
 62
    7
 10
58.676807
 20
65.318891
 40
3.550853
 50
24.679193
 51
38.569578
  0
ARC
  8
_0-0_1
  6
CONTINUOUS
 62
    7
 10
57.784277
 20
64.606781
 40
4.692655
 50
38.573387
 51
50.058328
  0
ARC
  8
_0-0_1
  6
CONTINUOUS
 62
    7
 10
56.808097
 20
63.440461
 40
6.213584
 50
50.061516
 51
59.563733
  0
ARC
  8
_0-0_1
  6
CONTINUOUS
 62
    7
 10
55.919237
 20
61.927221
 40
7.968563
 50
59.56526
 51
67.607394
  0
ARC
  8
_0-0_1
  6
CONTINUOUS
 62
    7
 10
55.245377
 20
60.291471
 40
9.737683
 50
67.60791
 51
74.641735
  0
ARC
  8
_0-0_1
  6
CONTINUOUS
 62
    7
 10
54.841907
 20
58.822501
 40
11.261055
 50
74.641744
 51
81.025845
  0
ARC
  8
_0-0_1
  6
CONTINUOUS
 62
    7
 10
54.680887
 20
57.803251
 40
12.292945
 50
81.025591
 51
87.047525
  0
ARC
  8
_0-0_1
  6
CONTINUOUS
 62
    7
 10
54.661997
 20
57.438801
 40
12.657886
 50
87.0471
 51
92.9529
  0
ARC
  8
_0-0_1
  6
CONTINUOUS
 62
    7
 10
54.643037
 20
57.803921
 40
12.292275
 50
92.95231
 51
98.974573
  0
ARC
  8
_0-0_1
  6
CONTINUOUS
 62
    7
 10
54.481797
 20
58.823851
 40
11.259678
 50
98.973764
 51
105.35864
  0
ARC
  8
_0-0_1
  6
CONTINUOUS
 62
    7
 10
54.077927
 20
60.293511
 40
9.735532
 50
105.35748
 51
112.39286
  0
ARC
  8
_0-0_1
  6
CONTINUOUS
 62
    7
 10
53.403417
 20
61.929921
 40
7.965559
 50
112.39108
 51
120.43625
  0
ARC
  8
_0-0_1
  6
CONTINUOUS
 62
    7
 10
52.513657
 20
63.443641
 40
6.209703
 50
120.43329
 51
129.94146
  0
ARC
  8
_0-0_1
  6
CONTINUOUS
 62
    7
 10
51.536437
 20
64.609981
 40
4.688088
 50
129.93605
 51
141.43222
  0
ARC
  8
_0-0_1
  6
CONTINUOUS
 62
    7
 10
50.643357
 20
65.321261
 40
3.546377
 50
141.42161
 51
155.32961
  0
ARC
  8
_0-0_1
  6
CONTINUOUS
 62
    7
 10
50.013517
 20
65.609471
 40
2.85373
 50
155.30969
 51
171.46659
  0
ARC
  8
_0-0_1
  6
CONTINUOUS
 62
    7
 10
49.796207
 20
65.640601
 40
2.634212
 50
171.43495
 51
179.96495
  0
ARC
  8
_0-0_1
  6
CONTINUOUS
 62
    7
 10
58.853847
 20
47.381431
 40
2.558174
 50
0.241433
 51
16.279663
  0
ARC
  8
_0-0_1
  6
CONTINUOUS
 62
    7
 10
59.988367
 20
47.810221
 40
1.352182
 50
12.312092
 51
28.268041
  0
ARC
  8
_0-0_1
  6
CONTINUOUS
 62
    7
 10
25.43354
 20
29.833934
 40
40.3031
 50
27.510869
 51
28.067378
  0
ARC
  8
_0-0_1
  6
CONTINUOUS
 62
    7
 10
57.894457
 20
46.889701
 40
3.641698
 50
31.582029
 51
44.144847
  0
ARC
  8
_0-0_1
  6
CONTINUOUS
 62
    7
 10
58.826367
 20
47.969851
 40
2.22425
 50
40.896264
 51
52.392483
  0
ARC
  8
_0-0_1
  6
CONTINUOUS
 62
    7
 10
20.451601
 20
-0.7910705
 40
64.274524
 50
51.817907
 51
52.233334
  0
ARC
  8
_0-0_1
  6
CONTINUOUS
 62
    7
 10
56.244217
 20
44.992019
 40
6.166641
 50
54.600913
 51
63.447465
  0
ARC
  8
_0-0_1
  6
CONTINUOUS
 62
    7
 10
57.217197
 20
47.270691
 40
3.696343
 50
61.148915
 51
69.267064
  0
ARC
  8
_0-0_1
  6
CONTINUOUS
 62
    7
 10
4.1008335
 20
-90.946357
 40
151.76824
 50
68.985422
 51
69.188824
  0
ARC
  8
_0-0_1
  6
CONTINUOUS
 62
    7
 10
55.022677
 20
42.234559
 40
9.188865
 50
70.946015
 51
77.760931
  0
ARC
  8
_0-0_1
  6
CONTINUOUS
 62
    7
 10
55.737627
 20
46.264548
 40
5.101282
 50
76.01281
 51
82.483615
  0
ARC
  8
_0-0_1
  6
CONTINUOUS
 62
    7
 10
-18.130128
 20
-506.7005
 40
562.97832
 50
82.392035
 51
82.451214
  0
ARC
  8
_0-0_1
  6
CONTINUOUS
 62
    7
 10
54.668277
 20
40.431788
 40
11.0281
 50
83.960821
 51
90.032608
  0
ARC
  8
_0-0_1
  6
CONTINUOUS
 62
    7
 10
54.661327
 20
40.325018
 40
11.134868
 50
89.996528
 51
96.010042
  0
ARC
  8
_0-0_1
  6
CONTINUOUS
 62
    7
 10
53.932897
 20
45.906311
 40
5.509765
 50
94.553575
 51
100.60317
  0
ARC
  8
_0-0_1
  6
CONTINUOUS
 62
    7
 10
101.94529
 20
-208.40588
 40
264.31449
 50
100.68937
 51
100.81419
  0
ARC
  8
_0-0_1
  6
CONTINUOUS
 62
    7
 10
54.372357
 20
41.980937
 40
9.451795
 50
102.33396
 51
108.95908
  0
ARC
  8
_0-0_1
  6
CONTINUOUS
 62
    7
 10
52.641897
 20
46.657571
 40
4.468181
 50
107.45635
 51
114.36939
  0
ARC
  8
_0-0_1
  6
CONTINUOUS
 62
    7
 10
92.351677
 20
-39.859123
 40
99.662701
 50
114.64159
 51
114.94243
  0
ARC
  8
_0-0_1
  6
CONTINUOUS
 62
    7
 10
53.218647
 20
44.760693
 40
6.435675
 50
116.73778
 51
125.21383
  0
ARC
  8
_0-0_1
  6
CONTINUOUS
 62
    7
 10
51.118317
 20
47.576511
 40
2.925479
 50
123.40596
 51
132.54279
  0
ARC
  8
_0-0_1
  6
CONTINUOUS
 62
    7
 10
82.290407
 20
14.29773
 40
48.523329
 50
133.09258
 51
133.61867
  0
ARC
  8
_0-0_1
  6
CONTINUOUS
 62
    7
 10
51.547507
 20
46.797991
 40
3.790256
 50
136.10228
 51
148.17084
  0
ARC
  8
_0-0_1
  6
CONTINUOUS
 62
    7
 10
49.727177
 20
47.837901
 40
1.696946
 50
145.58752
 51
158.83423
  0
ARC
  8
_0-0_1
  6
CONTINUOUS
 62
    7
 10
99.707707
 20
29.186957
 40
55.043906
 50
159.51458
 51
159.90528
  0
ARC
  8
_0-0_1
  6
CONTINUOUS
 62
    7
 10
50.471477
 20
47.381241
 40
2.559503
 50
163.72452
 51
179.75437
  0
ARC
  8
_0-0_1
  6
CONTINUOUS
 62
    7
 10
59.183867
 20
47.380291
 40
2.478159
 50
0.275721
 51
16.848356
  0
ARC
  8
_0-0_1
  6
CONTINUOUS
 62
    7
 10
60.269457
 20
47.807511
 40
1.318713
 50
12.750518
 51
29.216672
  0
ARC
  8
_0-0_1
  6
CONTINUOUS
 62
    7
 10
29.22896
 20
31.069457
 40
36.584344
 50
28.36678
 51
28.986258
  0
ARC
  8
_0-0_1
  6
CONTINUOUS
 62
    7
 10
58.150917
 20
46.832241
 40
3.653693
 50
32.553015
 51
45.227888
  0
ARC
  8
_0-0_1
  6
CONTINUOUS
 62
    7
 10
59.033727
 20
47.907241
 40
2.272526
 50
41.938578
 51
53.43155
  0
ARC
  8
_0-0_1
  6
CONTINUOUS
 62
    7
 10
22.547214
 20
-0.1680065
 40
62.625491
 50
52.826257
 51
53.263067
  0
ARC
  8
_0-0_1
  6
CONTINUOUS
 62
    7
 10
56.369847
 20
44.710028
 40
6.435259
 50
55.593745
 51
64.290567
  0
ARC
  8
_0-0_1
  6
CONTINUOUS
 62
    7
 10
57.331817
 20
47.063471
 40
3.90053
 50
62.024926
 51
69.96012
  0
ARC
  8
_0-0_1
  6
CONTINUOUS
 62
    7
 10
5.1687295
 20
-93.697289
 40
154.0157
 50
69.673752
 51
69.880793
  0
ARC
  8
_0-0_1
  6
CONTINUOUS
 62
    7
 10
55.051517
 20
41.625442
 40
9.796428
 50
71.584902
 51
78.192284
  0
ARC
  8
_0-0_1
  6
CONTINUOUS
 62
    7
 10
55.779827
 20
45.900385
 40
5.465308
 50
76.49505
 51
82.7526
  0
ARC
  8
_0-0_1
  6
CONTINUOUS
 62
    7
 10
-17.74725
 20
-524.91475
 40
580.9965
 50
82.660979
 51
82.720416
  0
ARC
  8
_0-0_1
  6
CONTINUOUS
 62
    7
 10
54.668847
 20
39.608789
 40
11.851099
 50
84.175627
 51
90.033115
  0
ARC
  8
_0-0_1
  6
CONTINUOUS
 62
    7
 10
54.661187
 20
39.489341
 40
11.970546
 50
89.996134
 51
95.795124
  0
ARC
  8
_0-0_1
  6
CONTINUOUS
 62
    7
 10
53.905997
 20
45.494583
 40
5.921516
 50
94.392194
 51
100.22641
  0
ARC
  8
_0-0_1
  6
CONTINUOUS
 62
    7
 10
101.43643
 20
-215.65657
 40
271.36278
 50
100.31319
 51
100.43915
  0
ARC
  8
_0-0_1
  6
CONTINUOUS
 62
    7
 10
54.349197
 20
41.341353
 40
10.090217
 50
101.904
 51
108.3188
  0
ARC
  8
_0-0_1
  6
CONTINUOUS
 62
    7
 10
52.559017
 20
46.365741
 40
4.75931
 50
106.87081
 51
113.57464
  0
ARC
  8
_0-0_1
  6
CONTINUOUS
 62
    7
 10
90.956547
 20
-40.421225
 40
99.661037
 50
113.85231
 51
114.16263
  0
ARC
  8
_0-0_1
  6
CONTINUOUS
 62
    7
 10
53.104377
 20
44.450424
 40
6.734374
 50
115.90292
 51
124.21276
  0
ARC
  8
_0-0_1
  6
CONTINUOUS
 62
    7
 10
50.952917
 20
47.449051
 40
3.046361
 50
122.46088
 51
131.44979
  0
ARC
  8
_0-0_1
  6
CONTINUOUS
 62
    7
 10
79.684697
 20
15.620099
 40
45.925071
 50
132.03105
 51
132.59881
  0
ARC
  8
_0-0_1
  6
CONTINUOUS
 62
    7
 10
51.300947
 20
46.729101
 40
3.817016
 50
135.04431
 51
147.17477
  0
ARC
  8
_0-0_1
  6
CONTINUOUS
 62
    7
 10
49.475177
 20
47.817031
 40
1.694711
 50
144.62178
 51
158.02517
  0
ARC
  8
_0-0_1
  6
CONTINUOUS
 62
    7
 10
92.952067
 20
30.971248
 40
48.320949
 50
158.79249
 51
159.24032
  0
ARC
  8
_0-0_1
  6
CONTINUOUS
 62
    7
 10
50.141697
 20
47.380051
 40
2.479731
 50
163.15693
 51
179.71898
  0
LINE
  8
_0-0_1
  6
CONTINUOUS
 62
    7
 10
47.661997
 20
47.392211
 11
47.689467
 21
47.035291
  0
ARC
  8
_0-0_1
  6
CONTINUOUS
 62
    7
 10
51.467457
 20
47.785741
 40
4.34552
 50
190.26144
 51
195.29944
  0
ARC
  8
_0-0_1
  6
CONTINUOUS
 62
    7
 10
59.529317
 20
47.405361
 40
2.632716
 50
343.07926
 51
359.71391
  0
ARC
  8
_0-0_1
  6
CONTINUOUS
 62
    7
 10
59.531027
 20
47.379331
 40
2.631003
 50
0.280627
 51
16.926188
  0
ARC
  8
_0-0_1
  6
CONTINUOUS
 62
    7
 10
60.681577
 20
47.834591
 40
1.40136
 50
12.810576
 51
29.34611
  0
ARC
  8
_0-0_1
  6
CONTINUOUS
 62
    7
 10
28.043757
 20
30.150035
 40
38.522233
 50
28.483292
 51
29.111456
  0
ARC
  8
_0-0_1
  6
CONTINUOUS
 62
    7
 10
58.419057
 20
46.786601
 40
3.897805
 50
32.684853
 51
45.373752
  0
ARC
  8
_0-0_1
  6
CONTINUOUS
 62
    7
 10
59.353327
 20
47.931961
 40
2.430364
 50
42.079195
 51
53.570451
  0
ARC
  8
_0-0_1
  6
CONTINUOUS
 62
    7
 10
20.694921
 20
-3.2543905
 40
66.574711
 50
52.961217
 51
53.400765
  0
ARC
  8
_0-0_1
  6
CONTINUOUS
 62
    7
 10
56.501107
 20
44.490332
 40
6.901556
 50
55.726293
 51
64.402495
  0
ARC
  8
_0-0_1
  6
CONTINUOUS
 62
    7
 10
57.525277
 20
47.010721
 40
4.189307
 50
62.141435
 51
70.051827
  0
ARC
  8
_0-0_1
  6
CONTINUOUS
 62
    7
 10
2.0221125
 20
-103.49736
 40
164.60524
 50
69.76493
 51
69.972382
  0
ARC
  8
_0-0_1
  6
CONTINUOUS
 62
    7
 10
55.081477
 20
41.152653
 40
10.535761
 50
71.669418
 51
78.249185
  0
ARC
  8
_0-0_1
  6
CONTINUOUS
 62
    7
 10
55.859997
 20
45.747198
 40
5.881517
 50
76.55874
 51
82.788044
  0
ARC
  8
_0-0_1
  6
CONTINUOUS
 62
    7
 10
-22.511959
 20
-565.66663
 40
622.29781
 50
82.696444
 51
82.755896
  0
ARC
  8
_0-0_1
  6
CONTINUOUS
 62
    7
 10
54.669387
 20
38.970532
 40
12.758632
 50
84.203942
 51
90.033168
  0
ARC
  8
_0-0_1
  6
CONTINUOUS
 62
    7
 10
54.661117
 20
38.841281
 40
12.887881
 50
89.996086
 51
95.766803
  0
ARC
  8
_0-0_1
  6
CONTINUOUS
 62
    7
 10
53.852007
 20
45.307425
 40
6.375054
 50
94.370916
 51
100.17674
  0
ARC
  8
_0-0_1
  6
CONTINUOUS
 62
    7
 10
104.4785
 20
-234.22839
 40
290.45835
 50
100.26357
 51
100.38964
  0
ARC
  8
_0-0_1
  6
CONTINUOUS
 62
    7
 10
54.325127
 20
40.845201
 40
10.853611
 50
101.84726
 51
108.23413
  0
ARC
  8
_0-0_1
  6
CONTINUOUS
 62
    7
 10
52.407697
 20
46.254168
 40
5.117901
 50
106.79335
 51
113.46933
  0
ARC
  8
_0-0_1
  6
CONTINUOUS
 62
    7
 10
93.181017
 20
-46.358918
 40
106.30898
 50
113.74763
 51
114.0591
  0
ARC
  8
_0-0_1
  6
CONTINUOUS
 62
    7
 10
52.984717
 20
44.209308
 40
7.224958
 50
115.79203
 51
124.07917
  0
ARC
  8
_0-0_1
  6
CONTINUOUS
 62
    7
 10
50.683267
 20
47.433741
 40
3.266199
 50
122.3348
 51
131.3032
  0
ARC
  8
_0-0_1
  6
CONTINUOUS
 62
    7
 10
80.998527
 20
13.683201
 40
48.632458
 50
131.88852
 51
132.46183
  0
ARC
  8
_0-0_1
  6
CONTINUOUS
 62
    7
 10
51.042707
 20
46.674911
 40
4.074124
 50
134.90187
 51
147.03951
  0
ARC
  8
_0-0_1
  6
CONTINUOUS
 62
    7
 10
49.095147
 20
47.842021
 40
1.806841
 50
144.49102
 51
157.91422
  0
ARC
  8
_0-0_1
  6
CONTINUOUS
 62
    7
 10
94.605097
 20
30.119036
 40
50.645786
 50
158.69368
 51
159.14963
  0
ARC
  8
_0-0_1
  6
CONTINUOUS
 62
    7
 10
49.794677
 20
47.379071
 40
2.632716
 50
163.07926
 51
179.71391
  0
LINE
  8
_0-0_1
  6
CONTINUOUS
 62
    7
 10
47.161997
 20
47.392211
 11
47.191437
 21
47.011621
  0
ARC
  8
_0-0_1
  6
DASHED3
 62
    7
 10
54.644858
 20
37.964426
 40
11.292271
 50
118.44197
 51
61.558025
  0
ARC
  8
_0-0_1
  6
DASHED3
 62
    7
 10
61.118429
 20
49.916108
 40
2.3
 50
188.42559
 51
241.55802
  0
ARC
  8
_0-0_1
  6
DASHED3
 62
    7
 10
48.171287
 20
49.916108
 40
2.3
 50
298.44198
 51
351.5744
  0
ARC
  8
_0-0_1
  6
DASHED3
 62
    7
 10
54.644858
 20
35.487656
 40
13.521646
 50
105.33782
 51
113.43721
  0
ARC
  8
_0-0_1
  6
DASHED3
 62
    7
 10
54.644858
 20
35.487656
 40
13.521646
 50
66.562782
 51
74.662178
  0
ARC
  8
_0-0_1
  6
CONTINUOUS
 62
    7
 10
14.718907
 20
64.665391
 40
50.645786
 50
339.01507
 51
339.14963
  0
ARC
  8
_0-0_1
  6
CONTINUOUS
 62
    7
 10
59.182297
 20
47.404371
 40
2.479731
 50
347.30595
 51
359.71898
  0
ARC
  8
_0-0_1
  6
CONTINUOUS
 62
    7
 10
58.852517
 20
47.403181
 40
2.559503
 50
351.51024
 51
359.75437
  0
ARC
  8
_0-0_1
  6
CONTINUOUS
 62
    7
 10
49.293287
 20
47.200701
 40
2.094062
 50
195.55613
 51
198.23616
  0
ARC
  8
_0-0_1
  6
CONTINUOUS
 62
    7
 10
51.711797
 20
47.759671
 40
4.087037
 50
190.20902
 51
192.37298
  0
LINE
  8
_0-0_1
  6
CONTINUOUS
 62
    7
 10
47.911997
 20
47.392211
 11
47.937425
 21
47.048793
  0
LINE
  8
_0-0_1
  6
DASHED3
 62
    7
 10
58.682527
 20
50.664179
 11
58.843253
 21
49.579101
  0
LINE
  8
_0-0_1
  6
DASHED3
 62
    7
 10
50.60331
 20
50.637991
 11
50.446464
 21
49.579101
  0
TEXT
  8
_0-0_1
 62
    7
 10
46.276607
 20
16.458654
 40
5
 41
0.966667
 50
0
  1
YL1308
  0
ENDSEC
  0
EOF
