  0
SECTION
  2
HEADER
  9
$ACADVER
  1
AC1009
  9
$INSBASE
 10
0
 20
0
 30
0
  9
$EXTMIN
 10
0
 20
0
  9
$EXTMAX
 10
84.1
 20
59.4
  9
$LIMMIN
 10
0
 20
0
  9
$LIMMAX
 10
84.1
 20
59.4
  9
$LTSCALE
 40
0.1
  0
ENDSEC
  0
SECTION
  2
TABLES
  0
TABLE
  2
LTYPE
 70
     9
  0
LTYPE
  2
CONTINUOUS
 70
    64
  3
実線
 72
    65
 73
     0
 40
0.0
  0
LTYPE
  2
DASHED1
 70
    64
  3
--  --  --  --  --  --  --  --  
 72
    65
 73
     2
 40
2.5
 49
1.25
 49
-1.25
  0
LTYPE
  2
DASHED2
 70
    64
  3
----    ----    ----    ----    
 72
    65
 73
     2
 40
5.0
 49
2.5
 49
-2.5
  0
LTYPE
  2
DASHED3
 70
    64
  3
------  ------  ------  ------  
 72
    65
 73
     2
 40
5.0
 49
3.75
 49
-1.25
  0
LTYPE
  2
CENTER1
 70
    64
  3
----- - ----- - ----- - ----- - 
 72
    65
 73
     4
 40
10.0
 49
6.25
 49
-1.25
 49
1.25
 49
-1.25
  0
LTYPE
  2
CENTER2
 70
    64
  3
----------  --  ----------  --  
 72
    65
 73
     4
 40
20.0
 49
12.5
 49
-2.5
 49
2.5
 49
-2.5
  0
LTYPE
  2
PHANTOM1
 70
    64
  3
--- - - --- - - --- - - --- - - 
 72
    65
 73
     6
 40
10.0
 49
3.25
 49
-1.25
 49
1.25
 49
-1.25
 49
1.25
 49
-1.25
  0
LTYPE
  2
PHANTOM2
 70
    64
  3
--------  -  -  --------  -  -  
 72
    65
 73
     6
 40
20.0
 49
10.0
 49
-2.5
 49
1.25
 49
-2.5
 49
1.25
 49
-2.5
  0
LTYPE
  2
DOT
 70
    64
  3
-   -   -   -   -   -   -   -   
 72
    65
 73
     2
 40
2.5
 49
0.625
 49
-1.875
  0
LTYPE
  2
DUMMY
 70
    64
  3
ダミー
 72
    65
 73
     0
 40
0.0
  0
LTYPE
  2
RAND1
 70
    64
  3
----- - ----- - ----- - ----- - 
 72
    65
 73
     4
 40
10.0
 49
6.25
 49
-1.25
 49
1.25
 49
-1.25
  0
LTYPE
  2
RAND2
 70
    64
  3
----------  --  ----------  --  
 72
    65
 73
     4
 40
20.0
 49
12.5
 49
-2.5
 49
2.5
 49
-2.5
  0
LTYPE
  2
RAND3
 70
    64
  3
--- - - --- - - --- - - --- - - 
 72
    65
 73
     6
 40
10.0
 49
3.25
 49
-1.25
 49
1.25
 49
-1.25
 49
1.25
 49
-1.25
  0
LTYPE
  2
RAND4
 70
    64
  3
--------  -  -  --------  -  -  
 72
    65
 73
     6
 40
20.0
 49
10.0
 49
-2.5
 49
1.25
 49
-2.5
 49
1.25
 49
-2.5
  0
LTYPE
  2
RAND5
 70
    64
  3
----- - ----- - ----- - ----- - 
 72
    65
 73
     4
 40
10.0
 49
6.25
 49
-1.25
 49
1.25
 49
-1.25
  0
LTYPE
  2
LONG1
 70
    64
  3
----------  --  ----------  --  
 72
    65
 73
     4
 40
20.0
 49
12.5
 49
-2.5
 49
2.5
 49
-2.5
  0
LTYPE
  2
LONG2
 70
    64
  3
--- - - --- - - --- - - --- - - 
 72
    65
 73
     6
 40
10.0
 49
3.25
 49
-1.25
 49
1.25
 49
-1.25
 49
1.25
 49
-1.25
  0
LTYPE
  2
LONG3
 70
    64
  3
--------  -  -  --------  -  -  
 72
    65
 73
     6
 40
20.0
 49
10.0
 49
-2.5
 49
1.25
 49
-2.5
 49
1.25
 49
-2.5
  0
LTYPE
  2
LONG4
 70
    64
  3
----- - ----- - ----- - ----- - 
 72
    65
 73
     4
 40
10.0
 49
6.25
 49
-1.25
 49
1.25
 49
-1.25
  0
LTYPE
  2
LONG5
 70
    64
  3
----------  --  ----------  --  
 72
    65
 73
     4
 40
20.0
 49
12.5
 49
-2.5
 49
2.5
 49
-2.5
  0
ENDTAB
  0
TABLE
  2
STYLE
  5
3
100
AcDbSymbolTable
 70
     1
  0
STYLE
  5
10
100
AcDbSymbolTableRecord
100
AcDbTextStyleTableRecord
  2
STANDARD
 70
     0
 40
0.0
 41
1.0
 50
0.0
 71
     0
 42
0.2
  3
txt
  4
bigfont.shx
  0
ENDTAB
  0
TABLE
  2
LAYER
 70
    2
  0
LAYER
  2
_0-0_1
 70
   64
 62
    7
  6
CONTINUOUS
  0
LAYER
  2
ADD_LINE
 70
   64
 62
    7
  6
CONTINUOUS
  0
ENDTAB
  0
ENDSEC
  0
SECTION
  2
BLOCKS
  0
ENDSEC
  0
SECTION
  2
ENTITIES
  0
LINE
  8
_0-0_1
  6
CONTINUOUS
 62
    7
 10
45.918741
 20
44.004884
 11
45.918741
 21
34.603994
  0
LINE
  8
_0-0_1
  6
CONTINUOUS
 62
    7
 10
43.993852
 20
34.405267
 11
43.993852
 21
44.004884
  0
LINE
  8
_0-0_1
  6
CONTINUOUS
 62
    7
 10
47.261488
 20
33.899995
 11
47.261488
 21
33.350494
  0
LINE
  8
_0-0_1
  6
CONTINUOUS
 62
    7
 10
47.261488
 20
33.899995
 11
46.682087
 21
33.911725
  0
LINE
  8
_0-0_1
  6
CONTINUOUS
 62
    7
 10
39.601558
 20
24.166666
 11
39.032592
 21
20.874613
  0
LINE
  8
_0-0_1
  6
CONTINUOUS
 62
    7
 10
38.959929
 20
25.278001
 11
38.390963
 21
21.985948
  0
LINE
  8
_0-0_1
  6
CONTINUOUS
 62
    7
 10
38.318299
 20
26.389336
 11
37.749333
 21
23.097283
  0
LINE
  8
_0-0_1
  6
CONTINUOUS
 62
    7
 10
51.927353
 20
22.018428
 11
41.46727
 21
14.22107
  0
LINE
  8
_0-0_1
  6
CONTINUOUS
 62
    7
 10
43.064811
 20
32.861102
 11
43.230507
 21
32.932113
  0
LINE
  8
_0-0_1
  6
CONTINUOUS
 62
    7
 10
43.064811
 20
32.861102
 11
33.283123
 21
28.669042
  0
LINE
  8
_0-0_1
  6
CONTINUOUS
 62
    7
 10
44.956297
 20
33.942723
 11
46.383299
 21
34.581468
  0
LINE
  8
_0-0_1
  6
CONTINUOUS
 62
    7
 10
44.956297
 20
33.942723
 11
43.230507
 21
34.152694
  0
LINE
  8
_0-0_1
  6
CONTINUOUS
 62
    7
 10
43.230507
 20
34.152694
 11
43.993852
 21
34.494377
  0
LINE
  8
_0-0_1
  6
CONTINUOUS
 62
    7
 10
43.230507
 20
32.528632
 11
44.956297
 21
32.318662
  0
LINE
  8
_0-0_1
  6
CONTINUOUS
 62
    7
 10
44.956297
 20
32.318662
 11
46.635939
 21
33.070491
  0
LINE
  8
_0-0_1
  6
CONTINUOUS
 62
    7
 10
46.383299
 20
34.751561
 11
46.635939
 21
34.720823
  0
LINE
  8
_0-0_1
  6
CONTINUOUS
 62
    7
 10
46.635939
 20
33.070491
 11
46.682086
 21
33.091147
  0
LINE
  8
_0-0_1
  6
CONTINUOUS
 62
    7
 10
46.383299
 20
34.581468
 11
46.682086
 21
34.715208
  0
LINE
  8
_0-0_1
  6
CONTINUOUS
 62
    7
 10
46.682086
 20
33.091147
 11
48.226745
 21
33.782555
  0
LINE
  8
_0-0_1
  6
CONTINUOUS
 62
    7
 10
46.635939
 20
34.720823
 11
46.682086
 21
34.715208
  0
LINE
  8
_0-0_1
  6
CONTINUOUS
 62
    7
 10
44.956297
 20
33.942723
 11
44.956297
 21
32.318662
  0
LINE
  8
_0-0_1
  6
CONTINUOUS
 62
    7
 10
43.230507
 20
34.152694
 11
43.230507
 21
32.528632
  0
LINE
  8
_0-0_1
  6
CONTINUOUS
 62
    7
 10
46.682086
 20
34.715208
 11
46.682086
 21
33.091147
  0
LINE
  8
_0-0_1
  6
CONTINUOUS
 62
    7
 10
45.918741
 20
34.808082
 11
46.383299
 21
34.751561
  0
LINE
  8
_0-0_1
  6
CONTINUOUS
 62
    7
 10
46.399963
 20
45.45454
 11
46.399963
 21
44.004884
  0
LINE
  8
_0-0_1
  6
CONTINUOUS
 62
    7
 10
47.732144
 20
45.45454
 11
47.732144
 21
51.538582
  0
LINE
  8
_0-0_1
  6
CONTINUOUS
 62
    7
 10
50.811614
 20
51.475324
 11
50.811614
 21
50.504334
  0
LINE
  8
_0-0_1
  6
CONTINUOUS
 62
    7
 10
49.355917
 20
50.504334
 11
49.355917
 21
51.475324
  0
LINE
  8
_0-0_1
  6
CONTINUOUS
 62
    7
 10
51.491327
 20
55.17595
 11
51.491327
 21
51.89489
  0
LINE
  8
_0-0_1
  6
CONTINUOUS
 62
    7
 10
43.512378
 20
44.004884
 11
43.512378
 21
45.45454
  0
LINE
  8
_0-0_1
  6
CONTINUOUS
 62
    7
 10
42.180198
 20
51.538582
 11
42.180198
 21
45.45454
  0
LINE
  8
_0-0_1
  6
CONTINUOUS
 62
    7
 10
39.100727
 20
50.504334
 11
39.100727
 21
51.475324
  0
LINE
  8
_0-0_1
  6
CONTINUOUS
 62
    7
 10
40.556424
 20
51.475324
 11
40.556424
 21
50.504334
  0
LINE
  8
_0-0_1
  6
CONTINUOUS
 62
    7
 10
38.421015
 20
51.89489
 11
38.421015
 21
55.17595
  0
ARC
  8
_0-0_1
  6
CONTINUOUS
 62
    7
 10
45.341304
 20
25.998059
 40
8.3020567
 50
7.4201944
 51
69.662015
  0
ARC
  8
_0-0_1
  6
CONTINUOUS
 62
    7
 10
48.205736
 20
26.024432
 40
5.4690218
 50
313.08242
 51
11.024113
  0
ARC
  8
_0-0_1
  6
CONTINUOUS
 62
    7
 10
40.57369
 20
23.302283
 40
10.69973
 50
192.15813
 51
228.22991
  0
ARC
  8
_0-0_1
  6
CONTINUOUS
 62
    7
 10
37.592329
 20
22.861324
 40
7.6948883
 50
151.69227
 51
193.62394
  0
ARC
  8
_0-0_1
  6
CONTINUOUS
 62
    7
 10
38.89535
 20
21.250014
 40
8.0519106
 50
227.40901
 51
260.28258
  0
ARC
  8
_0-0_1
  6
CONTINUOUS
 62
    7
 10
33.111078
 20
18.98419
 40
10.701895
 50
15.42475
 51
50.071156
  0
ARC
  8
_0-0_1
  6
CONTINUOUS
 62
    7
 10
35.630977
 20
19.45424
 40
8.1506327
 50
339.27682
 51
16.951093
  0
ARC
  8
_0-0_1
  6
CONTINUOUS
 62
    7
 10
34.924461
 20
21.319579
 40
7.7478836
 50
49.26982
 51
84.382341
  0
ARC
  8
_0-0_1
  6
CONTINUOUS
 62
    7
 10
38.440074
 20
18.37497
 40
5.1414021
 50
259.87547
 51
339.44882
  0
ARC
  8
_0-0_1
  6
CONTINUOUS
 62
    7
 10
35.21702
 20
23.973097
 40
5.0785681
 50
84.736607
 51
150.02719
  0
ARC
  8
_0-0_1
  6
CONTINUOUS
 62
    7
 10
40.272797
 20
23.126081
 40
9.8595923
 50
190.56178
 51
228.31409
  0
ARC
  8
_0-0_1
  6
CONTINUOUS
 62
    7
 10
32.626771
 20
18.716245
 40
10.724204
 50
13.427796
 51
46.306387
  0
ARC
  8
_0-0_1
  6
CONTINUOUS
 62
    7
 10
34.957331
 20
21.047647
 40
7.428917
 50
46.88145
 51
81.960542
  0
ARC
  8
_0-0_1
  6
CONTINUOUS
 62
    7
 10
37.394291
 20
22.772214
 40
6.967311
 50
153.8687
 51
192.04009
  0
ARC
  8
_0-0_1
  6
CONTINUOUS
 62
    7
 10
38.566095
 20
20.976956
 40
7.1212664
 50
227.06932
 51
268.85217
  0
ARC
  8
_0-0_1
  6
CONTINUOUS
 62
    7
 10
36.219182
 20
19.556843
 40
7.0348146
 50
330.94425
 51
13.563078
  0
ARC
  8
_0-0_1
  6
CONTINUOUS
 62
    7
 10
38.369736
 20
18.500043
 40
4.6432345
 50
270.66272
 51
329.45544
  0
ARC
  8
_0-0_1
  6
CONTINUOUS
 62
    7
 10
35.350758
 20
23.742763
 40
4.7052823
 50
82.114396
 51
153.51941
  0
ARC
  8
_0-0_1
  6
CONTINUOUS
 62
    7
 10
41.960691
 20
23.997013
 40
6.6420649
 50
201.54123
 51
252.03773
  0
ARC
  8
_0-0_1
  6
CONTINUOUS
 62
    7
 10
41.420879
 20
24.151252
 40
6.2060011
 50
167.49855
 51
204.69722
  0
ARC
  8
_0-0_1
  6
CONTINUOUS
 62
    7
 10
39.081773
 20
24.714026
 40
3.8007786
 50
117.19884
 51
168.14827
  0
ARC
  8
_0-0_1
  6
CONTINUOUS
 62
    7
 10
41.066836
 20
21.19923
 40
3.7050111
 50
251.84408
 51
303.32284
  0
ARC
  8
_0-0_1
  6
CONTINUOUS
 62
    7
 10
47.445123
 20
45.455883
 40
0.2870241
 50
323.40116
 51
41.463053
  0
ARC
  8
_0-0_1
  6
CONTINUOUS
 62
    7
 10
46.989173
 20
45.821811
 40
0.8715191
 50
293.92229
 51
321.95885
  0
ARC
  8
_0-0_1
  6
CONTINUOUS
 62
    7
 10
46.930855
 20
45.009598
 40
0.9679287
 50
41.103326
 51
66.873298
  0
ARC
  8
_0-0_1
  6
CONTINUOUS
 62
    7
 10
45.897053
 20
48.096136
 40
3.3941753
 50
278.52081
 51
295.20652
  0
ARC
  8
_0-0_1
  6
CONTINUOUS
 62
    7
 10
45.796543
 20
42.498547
 40
3.7231416
 50
65.997597
 51
80.843662
  0
ARC
  8
_0-0_1
  6
CONTINUOUS
 62
    7
 10
46.34578
 20
44.00504
 40
0.0541839
 50
313.0952
 51
48.10158
  0
ARC
  8
_0-0_1
  6
CONTINUOUS
 62
    7
 10
46.218385
 20
44.11654
 40
0.2232774
 50
288.66299
 51
317.42279
  0
ARC
  8
_0-0_1
  6
CONTINUOUS
 62
    7
 10
45.700902
 20
45.443798
 40
1.647644
 50
277.59744
 51
290.94296
  0
ARC
  8
_0-0_1
  6
CONTINUOUS
 62
    7
 10
50.083766
 20
51.119239
 40
0.952823
 50
220.19197
 51
319.80802
  0
ARC
  8
_0-0_1
  6
CONTINUOUS
 62
    7
 10
50.083766
 20
50.567404
 40
1.1636501
 50
51.282027
 51
128.71797
  0
ARC
  8
_0-0_1
  6
CONTINUOUS
 62
    7
 10
50.513923
 20
51.675749
 40
1.0002743
 50
327.89242
 51
31.796714
  0
ARC
  8
_0-0_1
  6
CONTINUOUS
 62
    7
 10
49.628656
 20
52.238731
 40
2.0493815
 50
305.25573
 51
327.715
  0
ARC
  8
_0-0_1
  6
CONTINUOUS
 62
    7
 10
49.323609
 20
50.86046
 40
2.4424154
 50
33.339259
 51
64.035449
  0
ARC
  8
_0-0_1
  6
CONTINUOUS
 62
    7
 10
46.28977
 20
58.593187
 40
9.2658106
 50
278.95543
 51
294.60236
  0
ARC
  8
_0-0_1
  6
CONTINUOUS
 62
    7
 10
46.783326
 20
46.211453
 40
7.7383403
 50
62.195388
 51
79.072601
  0
ARC
  8
_0-0_1
  6
CONTINUOUS
 62
    7
 10
50.203584
 20
54.836753
 40
1.3316662
 50
14.756774
 51
45.915687
  0
ARC
  8
_0-0_1
  6
CONTINUOUS
 62
    7
 10
48.554282
 20
53.109274
 40
3.7200289
 50
46.179261
 51
67.682448
  0
ARC
  8
_0-0_1
  6
CONTINUOUS
 62
    7
 10
46.200199
 20
47.703126
 40
9.6159694
 50
66.93871
 51
81.926416
  0
ARC
  8
_0-0_1
  6
CONTINUOUS
 62
    7
 10
46.129481
 20
43.754338
 40
0.3852891
 50
49.056994
 51
70.570793
  0
ARC
  8
_0-0_1
  6
CONTINUOUS
 62
    7
 10
45.558832
 20
41.995444
 40
2.2343349
 50
71.774302
 51
84.13849
  0
ARC
  8
_0-0_1
  6
CONTINUOUS
 62
    7
 10
42.467219
 20
45.455883
 40
0.2870241
 50
138.53694
 51
216.59883
  0
ARC
  8
_0-0_1
  6
CONTINUOUS
 62
    7
 10
42.923168
 20
45.821811
 40
0.8715191
 50
218.04114
 51
246.0777
  0
ARC
  8
_0-0_1
  6
CONTINUOUS
 62
    7
 10
42.981486
 20
45.009598
 40
0.9679287
 50
113.1267
 51
138.89667
  0
ARC
  8
_0-0_1
  6
CONTINUOUS
 62
    7
 10
44.015289
 20
48.096136
 40
3.3941753
 50
244.79347
 51
261.47918
  0
ARC
  8
_0-0_1
  6
CONTINUOUS
 62
    7
 10
44.115798
 20
42.498547
 40
3.7231416
 50
99.156337
 51
114.0024
  0
ARC
  8
_0-0_1
  6
CONTINUOUS
 62
    7
 10
43.566562
 20
44.00504
 40
0.0541839
 50
131.89841
 51
226.90479
  0
ARC
  8
_0-0_1
  6
CONTINUOUS
 62
    7
 10
43.693957
 20
44.11654
 40
0.2232774
 50
222.5772
 51
251.337
  0
ARC
  8
_0-0_1
  6
CONTINUOUS
 62
    7
 10
44.211439
 20
45.443798
 40
1.647644
 50
249.05703
 51
262.40255
  0
ARC
  8
_0-0_1
  6
CONTINUOUS
 62
    7
 10
39.828576
 20
51.119239
 40
0.952823
 50
220.19197
 51
319.80802
  0
ARC
  8
_0-0_1
  6
CONTINUOUS
 62
    7
 10
39.828576
 20
50.567404
 40
1.1636501
 50
51.282027
 51
128.71797
  0
ARC
  8
_0-0_1
  6
CONTINUOUS
 62
    7
 10
39.398418
 20
51.675749
 40
1.0002743
 50
148.20328
 51
212.10757
  0
ARC
  8
_0-0_1
  6
CONTINUOUS
 62
    7
 10
40.283685
 20
52.238731
 40
2.0493815
 50
212.28499
 51
234.74426
  0
ARC
  8
_0-0_1
  6
CONTINUOUS
 62
    7
 10
40.588732
 20
50.86046
 40
2.4424154
 50
115.96455
 51
146.66074
  0
ARC
  8
_0-0_1
  6
CONTINUOUS
 62
    7
 10
43.622571
 20
58.593187
 40
9.2658106
 50
245.39763
 51
261.04456
  0
ARC
  8
_0-0_1
  6
CONTINUOUS
 62
    7
 10
43.129015
 20
46.211453
 40
7.7383403
 50
100.92739
 51
117.80461
  0
ARC
  8
_0-0_1
  6
CONTINUOUS
 62
    7
 10
39.708757
 20
54.836753
 40
1.3316662
 50
134.08431
 51
165.24322
  0
ARC
  8
_0-0_1
  6
CONTINUOUS
 62
    7
 10
41.35806
 20
53.109274
 40
3.7200289
 50
112.31755
 51
133.82073
  0
ARC
  8
_0-0_1
  6
CONTINUOUS
 62
    7
 10
43.712142
 20
47.703126
 40
9.6159694
 50
98.073583
 51
113.06128
  0
ARC
  8
_0-0_1
  6
CONTINUOUS
 62
    7
 10
43.78286
 20
43.754338
 40
0.3852891
 50
109.4292
 51
130.943
  0
ARC
  8
_0-0_1
  6
CONTINUOUS
 62
    7
 10
44.35351
 20
41.995444
 40
2.2343349
 50
95.861509
 51
108.22569
  0
ARC
  8
_0-0_1
  6
CONTINUOUS
 62
    7
 10
44.956171
 20
40.590463
 40
16.834462
 50
81.13419
 51
98.865809
  0
ARC
  8
_0-0_1
  6
CONTINUOUS
 62
    7
 10
44.956171
 20
37.756448
 40
16.38752
 50
78.403907
 51
101.59609
  0
ARC
  8
_0-0_1
  6
CONTINUOUS
 62
    7
 10
44.955593
 20
45.236078
 40
7.1428316
 50
70.493733
 51
109.47442
  0
ARC
  8
_0-0_1
  6
CONTINUOUS
 62
    7
 10
44.956171
 20
37.734191
 40
8.5608151
 50
80.365002
 51
99.634997
  0
ARC
  8
_0-0_1
  6
CONTINUOUS
 62
    7
 10
44.956171
 20
36.968434
 40
7.2971167
 50
83.462193
 51
96.537806
  0
LINE
  8
_0-0_1
  6
CONTINUOUS
 62
    7
 10
46.682087
 20
33.911725
 11
46.682086
 21
33.911725
  0
TEXT
  8
_0-0_1
 62
    7
 10
36.804862
 20
2.0519027
 40
3
 41
0.9
 50
0
  1
YS1302
  0
ENDSEC
  0
EOF
