  0
SECTION
  2
HEADER
  9
$ACADVER
  1
AC1009
  9
$INSBASE
 10
0
 20
0
 30
0
  9
$EXTMIN
 10
0
 20
0
  9
$EXTMAX
 10
84.1
 20
59.4
  9
$LIMMIN
 10
0
 20
0
  9
$LIMMAX
 10
84.1
 20
59.4
  9
$LTSCALE
 40
0.1
  0
ENDSEC
  0
SECTION
  2
TABLES
  0
TABLE
  2
LTYPE
 70
     9
  0
LTYPE
  2
CONTINUOUS
 70
    64
  3
実線
 72
    65
 73
     0
 40
0.0
  0
LTYPE
  2
DASHED1
 70
    64
  3
--  --  --  --  --  --  --  --  
 72
    65
 73
     2
 40
2.5
 49
1.25
 49
-1.25
  0
LTYPE
  2
DASHED2
 70
    64
  3
----    ----    ----    ----    
 72
    65
 73
     2
 40
5.0
 49
2.5
 49
-2.5
  0
LTYPE
  2
DASHED3
 70
    64
  3
------  ------  ------  ------  
 72
    65
 73
     2
 40
5.0
 49
3.75
 49
-1.25
  0
LTYPE
  2
CENTER1
 70
    64
  3
----- - ----- - ----- - ----- - 
 72
    65
 73
     4
 40
10.0
 49
6.25
 49
-1.25
 49
1.25
 49
-1.25
  0
LTYPE
  2
CENTER2
 70
    64
  3
----------  --  ----------  --  
 72
    65
 73
     4
 40
20.0
 49
12.5
 49
-2.5
 49
2.5
 49
-2.5
  0
LTYPE
  2
PHANTOM1
 70
    64
  3
--- - - --- - - --- - - --- - - 
 72
    65
 73
     6
 40
10.0
 49
3.25
 49
-1.25
 49
1.25
 49
-1.25
 49
1.25
 49
-1.25
  0
LTYPE
  2
PHANTOM2
 70
    64
  3
--------  -  -  --------  -  -  
 72
    65
 73
     6
 40
20.0
 49
10.0
 49
-2.5
 49
1.25
 49
-2.5
 49
1.25
 49
-2.5
  0
LTYPE
  2
DOT
 70
    64
  3
-   -   -   -   -   -   -   -   
 72
    65
 73
     2
 40
2.5
 49
0.625
 49
-1.875
  0
LTYPE
  2
DUMMY
 70
    64
  3
ダミー
 72
    65
 73
     0
 40
0.0
  0
LTYPE
  2
RAND1
 70
    64
  3
----- - ----- - ----- - ----- - 
 72
    65
 73
     4
 40
10.0
 49
6.25
 49
-1.25
 49
1.25
 49
-1.25
  0
LTYPE
  2
RAND2
 70
    64
  3
----------  --  ----------  --  
 72
    65
 73
     4
 40
20.0
 49
12.5
 49
-2.5
 49
2.5
 49
-2.5
  0
LTYPE
  2
RAND3
 70
    64
  3
--- - - --- - - --- - - --- - - 
 72
    65
 73
     6
 40
10.0
 49
3.25
 49
-1.25
 49
1.25
 49
-1.25
 49
1.25
 49
-1.25
  0
LTYPE
  2
RAND4
 70
    64
  3
--------  -  -  --------  -  -  
 72
    65
 73
     6
 40
20.0
 49
10.0
 49
-2.5
 49
1.25
 49
-2.5
 49
1.25
 49
-2.5
  0
LTYPE
  2
RAND5
 70
    64
  3
----- - ----- - ----- - ----- - 
 72
    65
 73
     4
 40
10.0
 49
6.25
 49
-1.25
 49
1.25
 49
-1.25
  0
LTYPE
  2
LONG1
 70
    64
  3
----------  --  ----------  --  
 72
    65
 73
     4
 40
20.0
 49
12.5
 49
-2.5
 49
2.5
 49
-2.5
  0
LTYPE
  2
LONG2
 70
    64
  3
--- - - --- - - --- - - --- - - 
 72
    65
 73
     6
 40
10.0
 49
3.25
 49
-1.25
 49
1.25
 49
-1.25
 49
1.25
 49
-1.25
  0
LTYPE
  2
LONG3
 70
    64
  3
--------  -  -  --------  -  -  
 72
    65
 73
     6
 40
20.0
 49
10.0
 49
-2.5
 49
1.25
 49
-2.5
 49
1.25
 49
-2.5
  0
LTYPE
  2
LONG4
 70
    64
  3
----- - ----- - ----- - ----- - 
 72
    65
 73
     4
 40
10.0
 49
6.25
 49
-1.25
 49
1.25
 49
-1.25
  0
LTYPE
  2
LONG5
 70
    64
  3
----------  --  ----------  --  
 72
    65
 73
     4
 40
20.0
 49
12.5
 49
-2.5
 49
2.5
 49
-2.5
  0
ENDTAB
  0
TABLE
  2
STYLE
  5
3
100
AcDbSymbolTable
 70
     1
  0
STYLE
  5
10
100
AcDbSymbolTableRecord
100
AcDbTextStyleTableRecord
  2
STANDARD
 70
     0
 40
0.0
 41
1.0
 50
0.0
 71
     0
 42
0.2
  3
txt
  4
bigfont.shx
  0
ENDTAB
  0
TABLE
  2
LAYER
 70
    2
  0
LAYER
  2
_0-0_1
 70
   64
 62
    7
  6
CONTINUOUS
  0
LAYER
  2
ADD_LINE
 70
   64
 62
    7
  6
CONTINUOUS
  0
ENDTAB
  0
ENDSEC
  0
SECTION
  2
BLOCKS
  0
ENDSEC
  0
SECTION
  2
ENTITIES
  0
LINE
  8
_0-0_1
  6
CONTINUOUS
 62
    7
 10
43.382995
 20
35.941773
 11
43.382995
 21
49.266571
  0
LINE
  8
_0-0_1
  6
CONTINUOUS
 62
    7
 10
45.433528
 20
49.266571
 11
45.433528
 21
36.153472
  0
LINE
  8
_0-0_1
  6
CONTINUOUS
 62
    7
 10
45.433528
 20
36.370881
 11
45.928409
 21
36.310671
  0
LINE
  8
_0-0_1
  6
CONTINUOUS
 62
    7
 10
46.246699
 20
36.271945
 11
46.246699
 21
34.541876
  0
LINE
  8
_0-0_1
  6
CONTINUOUS
 62
    7
 10
42.569824
 20
35.672714
 11
42.569824
 21
33.942644
  0
LINE
  8
_0-0_1
  6
CONTINUOUS
 62
    7
 10
44.408261
 20
35.449038
 11
44.408261
 21
33.718968
  0
LINE
  8
_0-0_1
  6
CONTINUOUS
 62
    7
 10
46.197539
 20
36.277926
 11
46.246699
 21
36.271945
  0
LINE
  8
_0-0_1
  6
CONTINUOUS
 62
    7
 10
46.246699
 20
34.541876
 11
47.892182
 21
35.278415
  0
LINE
  8
_0-0_1
  6
CONTINUOUS
 62
    7
 10
45.928409
 20
36.129475
 11
46.246699
 21
36.271945
  0
LINE
  8
_0-0_1
  6
CONTINUOUS
 62
    7
 10
46.197539
 20
34.519871
 11
46.246699
 21
34.541876
  0
LINE
  8
_0-0_1
  6
CONTINUOUS
 62
    7
 10
45.928409
 20
36.310671
 11
46.197539
 21
36.277926
  0
LINE
  8
_0-0_1
  6
CONTINUOUS
 62
    7
 10
44.408261
 20
33.718968
 11
46.197539
 21
34.519871
  0
LINE
  8
_0-0_1
  6
CONTINUOUS
 62
    7
 10
42.569824
 20
33.942644
 11
44.408261
 21
33.718968
  0
LINE
  8
_0-0_1
  6
CONTINUOUS
 62
    7
 10
42.569824
 20
35.672714
 11
43.382995
 21
36.036699
  0
LINE
  8
_0-0_1
  6
CONTINUOUS
 62
    7
 10
44.408261
 20
35.449038
 11
42.569824
 21
35.672714
  0
LINE
  8
_0-0_1
  6
CONTINUOUS
 62
    7
 10
44.408261
 20
35.449038
 11
45.928409
 21
36.129475
  0
LINE
  8
_0-0_1
  6
CONTINUOUS
 62
    7
 10
42.393312
 20
34.296815
 11
31.973141
 21
29.831126
  0
LINE
  8
_0-0_1
  6
CONTINUOUS
 62
    7
 10
42.393312
 20
34.296815
 11
42.569824
 21
34.372461
  0
LINE
  8
_0-0_1
  6
CONTINUOUS
 62
    7
 10
51.834341
 20
22.746404
 11
40.691494
 21
14.440087
  0
LINE
  8
_0-0_1
  6
CONTINUOUS
 62
    7
 10
37.33698
 20
27.402616
 11
36.730875
 21
23.89568
  0
LINE
  8
_0-0_1
  6
CONTINUOUS
 62
    7
 10
38.02049
 20
26.21874
 11
37.414386
 21
22.711804
  0
LINE
  8
_0-0_1
  6
CONTINUOUS
 62
    7
 10
38.704001
 20
25.034865
 11
38.097897
 21
21.527929
  0
LINE
  8
_0-0_1
  6
CONTINUOUS
 62
    7
 10
46.86392
 20
35.40352
 11
46.2467
 21
35.416016
  0
LINE
  8
_0-0_1
  6
CONTINUOUS
 62
    7
 10
46.86392
 20
35.40352
 11
46.86392
 21
34.818152
  0
LINE
  8
_0-0_1
  6
CONTINUOUS
 62
    7
 10
47.298392
 20
53.085506
 11
47.298392
 21
49.930767
  0
LINE
  8
_0-0_1
  6
CONTINUOUS
 62
    7
 10
41.518131
 20
51.785398
 11
41.518131
 21
49.906499
  0
LINE
  8
_0-0_1
  6
CONTINUOUS
 62
    7
 10
42.953114
 20
49.786991
 11
42.953114
 21
49.295607
  0
LINE
  8
_0-0_1
  6
CONTINUOUS
 62
    7
 10
45.864323
 20
49.81242
 11
45.864323
 21
49.320267
  0
LINE
  8
_0-0_1
  6
CONTINUOUS
 62
    7
 10
41.105255
 20
56.53678
 11
41.105255
 21
51.880314
  0
LINE
  8
_0-0_1
  6
CONTINUOUS
 62
    7
 10
45.853327
 20
56.53678
 11
45.853327
 21
53.233774
  0
LINE
  8
_0-0_1
  6
CONTINUOUS
 62
    7
 10
45.853327
 20
53.233774
 11
44.767444
 21
52.407694
  0
LINE
  8
_0-0_1
  6
CONTINUOUS
 62
    7
 10
44.767444
 20
52.407694
 11
43.467554
 21
52.407736
  0
LINE
  8
_0-0_1
  6
CONTINUOUS
 62
    7
 10
50.21752
 20
52.438831
 11
47.298392
 21
52.438831
  0
LINE
  8
_0-0_1
  6
CONTINUOUS
 62
    7
 10
50.282901
 20
53.233774
 11
45.853327
 21
53.233774
  0
LINE
  8
_0-0_1
  6
CONTINUOUS
 62
    7
 10
50.270285
 20
56.53678
 11
45.853327
 21
56.53678
  0
LINE
  8
_0-0_1
  6
CONTINUOUS
 62
    7
 10
50.457861
 20
56.255863
 11
50.457861
 21
52.937037
  0
ARC
  8
_0-0_1
  6
CONTINUOUS
 62
    7
 10
40.264923
 20
21.873735
 40
3.9468493
 50
251.84408
 51
303.32284
  0
ARC
  8
_0-0_1
  6
CONTINUOUS
 62
    7
 10
38.150288
 20
25.617953
 40
4.0488679
 50
117.19884
 51
168.14827
  0
ARC
  8
_0-0_1
  6
CONTINUOUS
 62
    7
 10
40.642075
 20
25.018444
 40
6.6110872
 50
167.49855
 51
204.69722
  0
ARC
  8
_0-0_1
  6
CONTINUOUS
 62
    7
 10
41.217122
 20
24.854138
 40
7.0756144
 50
201.54123
 51
252.03773
  0
ARC
  8
_0-0_1
  6
CONTINUOUS
 62
    7
 10
34.175738
 20
24.583293
 40
5.0124116
 50
82.114396
 51
153.51941
  0
ARC
  8
_0-0_1
  6
CONTINUOUS
 62
    7
 10
37.391774
 20
18.998362
 40
4.9463137
 50
270.66272
 51
329.45544
  0
ARC
  8
_0-0_1
  6
CONTINUOUS
 62
    7
 10
35.100846
 20
20.124143
 40
7.4940001
 50
330.94425
 51
13.563078
  0
ARC
  8
_0-0_1
  6
CONTINUOUS
 62
    7
 10
37.60095
 20
21.636952
 40
7.5860949
 50
227.06932
 51
268.85217
  0
ARC
  8
_0-0_1
  6
CONTINUOUS
 62
    7
 10
36.352658
 20
23.549392
 40
7.4220903
 50
153.8687
 51
192.04009
  0
ARC
  8
_0-0_1
  6
CONTINUOUS
 62
    7
 10
33.75663
 20
21.712257
 40
7.9138269
 50
46.88145
 51
81.960542
  0
ARC
  8
_0-0_1
  6
CONTINUOUS
 62
    7
 10
31.273947
 20
19.228677
 40
11.424208
 50
13.427796
 51
46.306387
  0
ARC
  8
_0-0_1
  6
CONTINUOUS
 62
    7
 10
39.419054
 20
23.926357
 40
10.50316
 50
190.56178
 51
228.31409
  0
ARC
  8
_0-0_1
  6
CONTINUOUS
 62
    7
 10
34.033269
 20
24.828661
 40
5.4100629
 50
84.736607
 51
150.02719
  0
ARC
  8
_0-0_1
  6
CONTINUOUS
 62
    7
 10
37.466703
 20
18.865126
 40
5.4769983
 50
259.87547
 51
339.44882
  0
ARC
  8
_0-0_1
  6
CONTINUOUS
 62
    7
 10
33.721615
 20
22.001939
 40
8.2536135
 50
49.26982
 51
84.382341
  0
ARC
  8
_0-0_1
  6
CONTINUOUS
 62
    7
 10
34.474248
 20
20.014843
 40
8.6826514
 50
339.27682
 51
16.951093
  0
ARC
  8
_0-0_1
  6
CONTINUOUS
 62
    7
 10
31.789866
 20
19.514111
 40
11.400443
 50
15.42475
 51
50.071156
  0
ARC
  8
_0-0_1
  6
CONTINUOUS
 62
    7
 10
37.951697
 20
21.927833
 40
8.5774853
 50
227.40901
 51
260.28258
  0
ARC
  8
_0-0_1
  6
CONTINUOUS
 62
    7
 10
36.563623
 20
23.644319
 40
8.197159
 50
151.69227
 51
193.62394
  0
ARC
  8
_0-0_1
  6
CONTINUOUS
 62
    7
 10
39.739588
 20
24.11406
 40
11.398136
 50
192.15813
 51
228.22991
  0
ARC
  8
_0-0_1
  6
CONTINUOUS
 62
    7
 10
47.869802
 20
27.013893
 40
5.8260028
 50
313.08242
 51
11.024113
  0
ARC
  8
_0-0_1
  6
CONTINUOUS
 62
    7
 10
44.818399
 20
26.985799
 40
8.8439593
 50
7.4201944
 51
69.662015
  0
ARC
  8
_0-0_1
  6
CONTINUOUS
 62
    7
 10
41.645928
 20
49.930101
 40
0.1277987
 50
102.49625
 51
259.38889
  0
ARC
  8
_0-0_1
  6
CONTINUOUS
 62
    7
 10
42.64455
 20
47.750554
 40
2.5225238
 50
97.940145
 51
114.00675
  0
ARC
  8
_0-0_1
  6
CONTINUOUS
 62
    7
 10
42.483378
 20
51.654392
 40
2.0404505
 50
245.04174
 51
259.2761
  0
ARC
  8
_0-0_1
  6
CONTINUOUS
 62
    7
 10
43.605921
 20
57.129331
 40
7.629114
 50
258.64388
 51
265.09132
  0
ARC
  8
_0-0_1
  6
CONTINUOUS
 62
    7
 10
44.107019
 20
38.766924
 40
11.623901
 50
91.238728
 51
98.962813
  0
ARC
  8
_0-0_1
  6
CONTINUOUS
 62
    7
 10
47.185218
 20
49.930868
 40
0.1131742
 50
292.3877
 51
67.919359
  0
ARC
  8
_0-0_1
  6
CONTINUOUS
 62
    7
 10
46.558014
 20
51.016188
 40
1.3657697
 50
283.30953
 51
299.39264
  0
ARC
  8
_0-0_1
  6
CONTINUOUS
 62
    7
 10
45.305136
 20
56.356682
 40
6.8512558
 50
274.68159
 51
283.22409
  0
ARC
  8
_0-0_1
  6
CONTINUOUS
 62
    7
 10
46.660056
 20
49.086097
 40
1.1063972
 50
59.128676
 51
76.753718
  0
ARC
  8
_0-0_1
  6
CONTINUOUS
 62
    7
 10
45.431598
 20
44.347207
 40
6.001697
 50
75.704326
 51
85.879796
  0
ARC
  8
_0-0_1
  6
CONTINUOUS
 62
    7
 10
44.41218
 20
33.96065
 40
16.43688
 50
84.936779
 51
91.940043
  0
ARC
  8
_0-0_1
  6
CONTINUOUS
 62
    7
 10
45.244533
 20
50.410188
 40
1.3220663
 50
278.21879
 51
294.09493
  0
ARC
  8
_0-0_1
  6
CONTINUOUS
 62
    7
 10
45.727599
 20
49.327979
 40
0.136942
 50
294.44446
 51
356.77158
  0
ARC
  8
_0-0_1
  6
CONTINUOUS
 62
    7
 10
45.708685
 20
49.225159
 40
0.1823976
 50
31.428501
 51
74.834674
  0
ARC
  8
_0-0_1
  6
CONTINUOUS
 62
    7
 10
45.184125
 20
47.980757
 40
1.5313951
 50
68.056273
 51
83.400384
  0
ARC
  8
_0-0_1
  6
CONTINUOUS
 62
    7
 10
43.006962
 20
49.296366
 40
0.0531914
 50
136.07941
 51
216.45841
  0
ARC
  8
_0-0_1
  6
CONTINUOUS
 62
    7
 10
43.101155
 20
49.354438
 40
0.1637204
 50
213.21371
 51
251.10383
  0
ARC
  8
_0-0_1
  6
CONTINUOUS
 62
    7
 10
43.135233
 20
49.197036
 40
0.2151931
 50
107.11997
 51
140.72482
  0
ARC
  8
_0-0_1
  6
CONTINUOUS
 62
    7
 10
43.58822
 20
50.446947
 40
1.3593072
 50
246.58897
 51
261.31637
  0
ARC
  8
_0-0_1
  6
CONTINUOUS
 62
    7
 10
43.628356
 20
47.982792
 40
1.5250507
 50
99.289365
 51
111.40059
  0
ARC
  8
_0-0_1
  6
CONTINUOUS
 62
    7
 10
44.419229
 20
42.780316
 40
6.787222
 50
82.031532
 51
98.78889
  0
ARC
  8
_0-0_1
  6
CONTINUOUS
 62
    7
 10
41.27598
 20
51.788534
 40
0.1707251
 50
147.48022
 51
213.28215
  0
ARC
  8
_0-0_1
  6
CONTINUOUS
 62
    7
 10
41.475573
 20
51.912508
 40
0.4056555
 50
212.4503
 51
237.61582
  0
ARC
  8
_0-0_1
  6
CONTINUOUS
 62
    7
 10
41.96021
 20
52.645215
 40
1.2840873
 50
236.86478
 51
249.86245
  0
ARC
  8
_0-0_1
  6
CONTINUOUS
 62
    7
 10
41.477676
 20
51.667549
 40
0.4058873
 50
119.25923
 51
148.38581
  0
ARC
  8
_0-0_1
  6
CONTINUOUS
 62
    7
 10
42.213974
 20
50.403894
 40
1.8683598
 50
103.38792
 51
120.01771
  0
ARC
  8
_0-0_1
  6
CONTINUOUS
 62
    7
 10
43.360884
 20
45.647707
 40
6.7608708
 50
89.095982
 51
103.51065
  0
ARC
  8
_0-0_1
  6
CONTINUOUS
 62
    7
 10
41.40726
 20
56.48855
 40
0.3058321
 50
118.98331
 51
170.92641
  0
ARC
  8
_0-0_1
  6
CONTINUOUS
 62
    7
 10
45.488438
 20
56.455039
 40
0.373932
 50
12.62675
 51
69.968302
  0
ARC
  8
_0-0_1
  6
CONTINUOUS
 62
    7
 10
42.20604
 20
55.187518
 40
1.8322508
 50
103.03391
 51
121.12021
  0
ARC
  8
_0-0_1
  6
CONTINUOUS
 62
    7
 10
44.528321
 20
54.579549
 40
2.4784728
 50
63.955946
 51
79.534598
  0
ARC
  8
_0-0_1
  6
CONTINUOUS
 62
    7
 10
43.493901
 20
49.198604
 40
7.9578978
 50
79.247984
 51
102.34282
  0
ARC
  8
_0-0_1
  6
CONTINUOUS
 62
    7
 10
49.984905
 20
52.858123
 40
0.4794946
 50
299.0207
 51
51.575822
  0
ARC
  8
_0-0_1
  6
CONTINUOUS
 62
    7
 10
49.846944
 20
56.053821
 40
0.6422358
 50
17.966964
 51
48.763621
  0
LINE
  8
_0-0_1
  6
CONTINUOUS
 62
    7
 10
46.2467
 20
35.416016
 11
46.246699
 21
35.416016
  0
TEXT
  8
_0-0_1
 62
    7
 10
38.049471
 20
2.3186046
 40
3
 41
0.9
 50
0
  1
YS1304
  0
ENDSEC
  0
EOF
