  0
SECTION
  2
HEADER
  9
$ACADVER
  1
AC1009
  9
$INSBASE
 10
0
 20
0
 30
0
  9
$EXTMIN
 10
0
 20
0
  9
$EXTMAX
 10
84.1
 20
59.4
  9
$LIMMIN
 10
0
 20
0
  9
$LIMMAX
 10
84.1
 20
59.4
  9
$LTSCALE
 40
0.1
  0
ENDSEC
  0
SECTION
  2
TABLES
  0
TABLE
  2
LTYPE
 70
     9
  0
LTYPE
  2
CONTINUOUS
 70
    64
  3
実線
 72
    65
 73
     0
 40
0.0
  0
LTYPE
  2
DASHED1
 70
    64
  3
--  --  --  --  --  --  --  --  
 72
    65
 73
     2
 40
2.5
 49
1.25
 49
-1.25
  0
LTYPE
  2
DASHED2
 70
    64
  3
----    ----    ----    ----    
 72
    65
 73
     2
 40
5.0
 49
2.5
 49
-2.5
  0
LTYPE
  2
DASHED3
 70
    64
  3
------  ------  ------  ------  
 72
    65
 73
     2
 40
5.0
 49
3.75
 49
-1.25
  0
LTYPE
  2
CENTER1
 70
    64
  3
----- - ----- - ----- - ----- - 
 72
    65
 73
     4
 40
10.0
 49
6.25
 49
-1.25
 49
1.25
 49
-1.25
  0
LTYPE
  2
CENTER2
 70
    64
  3
----------  --  ----------  --  
 72
    65
 73
     4
 40
20.0
 49
12.5
 49
-2.5
 49
2.5
 49
-2.5
  0
LTYPE
  2
PHANTOM1
 70
    64
  3
--- - - --- - - --- - - --- - - 
 72
    65
 73
     6
 40
10.0
 49
3.25
 49
-1.25
 49
1.25
 49
-1.25
 49
1.25
 49
-1.25
  0
LTYPE
  2
PHANTOM2
 70
    64
  3
--------  -  -  --------  -  -  
 72
    65
 73
     6
 40
20.0
 49
10.0
 49
-2.5
 49
1.25
 49
-2.5
 49
1.25
 49
-2.5
  0
LTYPE
  2
DOT
 70
    64
  3
-   -   -   -   -   -   -   -   
 72
    65
 73
     2
 40
2.5
 49
0.625
 49
-1.875
  0
LTYPE
  2
DUMMY
 70
    64
  3
ダミー
 72
    65
 73
     0
 40
0.0
  0
LTYPE
  2
RAND1
 70
    64
  3
----- - ----- - ----- - ----- - 
 72
    65
 73
     4
 40
10.0
 49
6.25
 49
-1.25
 49
1.25
 49
-1.25
  0
LTYPE
  2
RAND2
 70
    64
  3
----------  --  ----------  --  
 72
    65
 73
     4
 40
20.0
 49
12.5
 49
-2.5
 49
2.5
 49
-2.5
  0
LTYPE
  2
RAND3
 70
    64
  3
--- - - --- - - --- - - --- - - 
 72
    65
 73
     6
 40
10.0
 49
3.25
 49
-1.25
 49
1.25
 49
-1.25
 49
1.25
 49
-1.25
  0
LTYPE
  2
RAND4
 70
    64
  3
--------  -  -  --------  -  -  
 72
    65
 73
     6
 40
20.0
 49
10.0
 49
-2.5
 49
1.25
 49
-2.5
 49
1.25
 49
-2.5
  0
LTYPE
  2
RAND5
 70
    64
  3
----- - ----- - ----- - ----- - 
 72
    65
 73
     4
 40
10.0
 49
6.25
 49
-1.25
 49
1.25
 49
-1.25
  0
LTYPE
  2
LONG1
 70
    64
  3
----------  --  ----------  --  
 72
    65
 73
     4
 40
20.0
 49
12.5
 49
-2.5
 49
2.5
 49
-2.5
  0
LTYPE
  2
LONG2
 70
    64
  3
--- - - --- - - --- - - --- - - 
 72
    65
 73
     6
 40
10.0
 49
3.25
 49
-1.25
 49
1.25
 49
-1.25
 49
1.25
 49
-1.25
  0
LTYPE
  2
LONG3
 70
    64
  3
--------  -  -  --------  -  -  
 72
    65
 73
     6
 40
20.0
 49
10.0
 49
-2.5
 49
1.25
 49
-2.5
 49
1.25
 49
-2.5
  0
LTYPE
  2
LONG4
 70
    64
  3
----- - ----- - ----- - ----- - 
 72
    65
 73
     4
 40
10.0
 49
6.25
 49
-1.25
 49
1.25
 49
-1.25
  0
LTYPE
  2
LONG5
 70
    64
  3
----------  --  ----------  --  
 72
    65
 73
     4
 40
20.0
 49
12.5
 49
-2.5
 49
2.5
 49
-2.5
  0
ENDTAB
  0
TABLE
  2
STYLE
  5
3
100
AcDbSymbolTable
 70
     1
  0
STYLE
  5
10
100
AcDbSymbolTableRecord
100
AcDbTextStyleTableRecord
  2
STANDARD
 70
     0
 40
0.0
 41
1.0
 50
0.0
 71
     0
 42
0.2
  3
txt
  4
bigfont.shx
  0
ENDTAB
  0
TABLE
  2
LAYER
 70
    2
  0
LAYER
  2
_0-0_1
 70
   64
 62
    7
  6
CONTINUOUS
  0
LAYER
  2
ADD_LINE
 70
   64
 62
    7
  6
CONTINUOUS
  0
ENDTAB
  0
ENDSEC
  0
SECTION
  2
BLOCKS
  0
ENDSEC
  0
SECTION
  2
ENTITIES
  0
LINE
  8
_0-0_1
  6
CONTINUOUS
 62
    7
 10
52.685768
 20
51.962755
 11
52.685768
 21
53.488119
  0
LINE
  8
_0-0_1
  6
CONTINUOUS
 62
    7
 10
51.442151
 20
53.503325
 11
51.442151
 21
51.977961
  0
LINE
  8
_0-0_1
  6
CONTINUOUS
 62
    7
 10
40.510928
 20
51.954019
 11
40.510928
 21
53.479383
  0
LINE
  8
_0-0_1
  6
CONTINUOUS
 62
    7
 10
39.26731
 20
53.494589
 11
39.26731
 21
51.969225
  0
LINE
  8
_0-0_1
  6
CONTINUOUS
 62
    7
 10
49.679071
 20
47.972509
 11
49.679071
 21
53.994336
  0
LINE
  8
_0-0_1
  6
CONTINUOUS
 62
    7
 10
42.277158
 20
53.957304
 11
42.277158
 21
47.972509
  0
LINE
  8
_0-0_1
  6
CONTINUOUS
 62
    7
 10
54.044302
 20
53.957304
 11
54.044302
 21
58.03152
  0
LINE
  8
_0-0_1
  6
CONTINUOUS
 62
    7
 10
37.911927
 20
58.03152
 11
37.911927
 21
53.957304
  0
LINE
  8
_0-0_1
  6
CONTINUOUS
 62
    7
 10
36.214721
 20
14.095562
 11
38.100917
 21
17.45985
  0
LINE
  8
_0-0_1
  6
CONTINUOUS
 62
    7
 10
36.365762
 20
13.72572
 11
38.425747
 21
17.461135
  0
LINE
  8
_0-0_1
  6
CONTINUOUS
 62
    7
 10
32.21018
 20
17.645635
 11
37.214311
 21
20.185628
  0
LINE
  8
_0-0_1
  6
CONTINUOUS
 62
    7
 10
32.633206
 20
16.899123
 11
36.932759
 21
19.765581
  0
LINE
  8
_0-0_1
  6
CONTINUOUS
 62
    7
 10
31.089568
 20
22.392484
 11
35.67312
 21
22.21841
  0
LINE
  8
_0-0_1
  6
CONTINUOUS
 62
    7
 10
31.065875
 20
21.279232
 11
36.138981
 21
21.698394
  0
LINE
  8
_0-0_1
  6
CONTINUOUS
 62
    7
 10
52.073216
 20
19.280543
 11
38.48269
 21
11.434049
  0
LINE
  8
_0-0_1
  6
CONTINUOUS
 62
    7
 10
55.382864
 20
15.213166
 11
52.889218
 21
19.751662
  0
LINE
  8
_0-0_1
  6
CONTINUOUS
 62
    7
 10
54.64
 20
14.788672
 11
55.382864
 21
15.213166
  0
LINE
  8
_0-0_1
  6
CONTINUOUS
 62
    7
 10
52.073216
 20
19.280543
 11
54.64
 21
14.788672
  0
LINE
  8
_0-0_1
  6
CONTINUOUS
 62
    7
 10
29.213749
 20
27.488324
 11
44.298805
 21
36.167556
  0
LINE
  8
_0-0_1
  6
CONTINUOUS
 62
    7
 10
46.719061
 20
34.195075
 11
31.833286
 21
25.532042
  0
LINE
  8
_0-0_1
  6
CONTINUOUS
 62
    7
 10
46.459533
 20
35.730747
 11
46.821374
 21
35.730747
  0
LINE
  8
_0-0_1
  6
CONTINUOUS
 62
    7
 10
46.170462
 20
37.269199
 11
46.821374
 21
37.323514
  0
LINE
  8
_0-0_1
  6
CONTINUOUS
 62
    7
 10
47.69259
 20
37.634299
 11
47.69259
 21
35.002723
  0
LINE
  8
_0-0_1
  6
CONTINUOUS
 62
    7
 10
44.298805
 20
37.724711
 11
44.298805
 21
36.167556
  0
LINE
  8
_0-0_1
  6
CONTINUOUS
 62
    7
 10
43.761673
 20
47.791472
 11
43.761673
 21
35.887572
  0
LINE
  8
_0-0_1
  6
CONTINUOUS
 62
    7
 10
47.90643
 20
47.755643
 11
47.89678
 21
34.864474
  0
ARC
  8
_0-0_1
  6
CONTINUOUS
 62
    7
 10
52.07029
 20
52.488083
 40
0.8091872
 50
219.08065
 51
319.51828
  0
ARC
  8
_0-0_1
  6
CONTINUOUS
 62
    7
 10
52.050438
 20
50.864516
 40
1.2687682
 50
59.950657
 51
118.64828
  0
ARC
  8
_0-0_1
  6
CONTINUOUS
 62
    7
 10
52.057108
 20
52.935393
 40
0.8370902
 50
41.322375
 51
137.27656
  0
ARC
  8
_0-0_1
  6
CONTINUOUS
 62
    7
 10
39.895449
 20
52.479348
 40
0.8091872
 50
219.08065
 51
319.51828
  0
ARC
  8
_0-0_1
  6
CONTINUOUS
 62
    7
 10
39.875598
 20
50.85578
 40
1.2687682
 50
59.950657
 51
118.64828
  0
ARC
  8
_0-0_1
  6
CONTINUOUS
 62
    7
 10
39.882268
 20
52.926657
 40
0.8370902
 50
41.322375
 51
137.27656
  0
ARC
  8
_0-0_1
  6
CONTINUOUS
 62
    7
 10
53.228906
 20
57.737229
 40
0.866878
 50
19.845379
 51
78.026874
  0
ARC
  8
_0-0_1
  6
CONTINUOUS
 62
    7
 10
45.953593
 20
29.383104
 40
30.138754
 50
75.678602
 51
104.06322
  0
ARC
  8
_0-0_1
  6
CONTINUOUS
 62
    7
 10
38.792581
 20
57.686939
 40
0.9456678
 50
99.893251
 51
158.63068
  0
ARC
  8
_0-0_1
  6
CONTINUOUS
 62
    7
 10
46.003981
 20
14.464123
 40
40.922313
 50
85.765989
 51
96.79743
  0
ARC
  8
_0-0_1
  6
CONTINUOUS
 62
    7
 10
47.409237
 20
30.550665
 40
24.776846
 50
78.51496
 51
86.26028
  0
ARC
  8
_0-0_1
  6
CONTINUOUS
 62
    7
 10
51.697461
 20
51.158966
 40
3.7286687
 50
51.73955
 51
80.036378
  0
ARC
  8
_0-0_1
  6
CONTINUOUS
 62
    7
 10
53.709032
 20
53.929365
 40
0.3364318
 50
287.14406
 51
27.888425
  0
ARC
  8
_0-0_1
  6
CONTINUOUS
 62
    7
 10
51.816177
 20
57.023221
 40
3.9538225
 50
282.75211
 51
300.25324
  0
ARC
  8
_0-0_1
  6
CONTINUOUS
 62
    7
 10
47.472885
 20
77.790836
 40
25.194753
 50
275.02355
 51
279.07158
  0
ARC
  8
_0-0_1
  6
CONTINUOUS
 62
    7
 10
40.244534
 20
57.173658
 40
4.1241838
 50
238.35309
 51
256.29342
  0
ARC
  8
_0-0_1
  6
CONTINUOUS
 62
    7
 10
41.974406
 20
46.028939
 40
9.1062986
 50
95.128226
 51
115.16691
  0
ARC
  8
_0-0_1
  6
CONTINUOUS
 62
    7
 10
38.25967
 20
53.960892
 40
0.3477622
 50
116.98128
 51
239.0164
  0
ARC
  8
_0-0_1
  6
CONTINUOUS
 62
    7
 10
44.714678
 20
79.662058
 40
27.079125
 50
261.06931
 51
264.83554
  0
ARC
  8
_0-0_1
  6
CONTINUOUS
 62
    7
 10
48.851752
 20
52.958357
 40
1.3257868
 50
51.38961
 51
81.369223
  0
ARC
  8
_0-0_1
  6
CONTINUOUS
 62
    7
 10
45.992518
 20
35.772716
 40
18.747529
 50
80.611673
 51
99.700156
  0
ARC
  8
_0-0_1
  6
CONTINUOUS
 62
    7
 10
42.853
 20
53.543191
 40
0.7092841
 50
91.558566
 51
144.2784
  0
ARC
  8
_0-0_1
  6
CONTINUOUS
 62
    7
 10
45.988385
 20
32.344519
 40
16.186625
 50
77.481361
 51
102.66909
  0
ARC
  8
_0-0_1
  6
CONTINUOUS
 62
    7
 10
47.612324
 20
53.279419
 40
5.7916691
 50
272.78912
 51
289.42773
  0
ARC
  8
_0-0_1
  6
CONTINUOUS
 62
    7
 10
44.247527
 20
53.061641
 40
5.5573768
 50
251.10341
 51
264.98451
  0
ARC
  8
_0-0_1
  6
CONTINUOUS
 62
    7
 10
49.513529
 20
47.981369
 40
0.1657786
 50
278.74577
 51
95.738738
  0
ARC
  8
_0-0_1
  6
CONTINUOUS
 62
    7
 10
42.443847
 20
47.970438
 40
0.1667017
 50
91.895142
 51
271.32789
  0
ARC
  8
_0-0_1
  6
CONTINUOUS
 62
    7
 10
45.790733
 20
42.762362
 40
5.4230086
 50
67.037197
 51
111.97225
  0
ARC
  8
_0-0_1
  6
CONTINUOUS
 62
    7
 10
33.629804
 20
16.78329
 40
0.2013709
 50
90
 51
345.188
  0
ARC
  8
_0-0_1
  6
CONTINUOUS
 62
    7
 10
34.554315
 20
16.813112
 40
0.2013709
 50
90
 51
360
  0
ARC
  8
_0-0_1
  6
CONTINUOUS
 62
    7
 10
35.34315
 20
16.670521
 40
0.2013709
 50
90
 51
360
  0
ARC
  8
_0-0_1
  6
CONTINUOUS
 62
    7
 10
36.015638
 20
17.051696
 40
0.2013709
 50
90
 51
360
  0
ARC
  8
_0-0_1
  6
CONTINUOUS
 62
    7
 10
34.822721
 20
18.93054
 40
0.2013709
 50
90
 51
360
  0
ARC
  8
_0-0_1
  6
CONTINUOUS
 62
    7
 10
34.240276
 20
18.580755
 40
0.2013709
 50
90
 51
0
  0
ARC
  8
_0-0_1
  6
CONTINUOUS
 62
    7
 10
33.71517
 20
17.701066
 40
0.2013709
 50
90
 51
0
  0
ARC
  8
_0-0_1
  6
CONTINUOUS
 62
    7
 10
32.894824
 20
18.465266
 40
0.2013709
 50
90
 51
0
  0
ARC
  8
_0-0_1
  6
CONTINUOUS
 62
    7
 10
32.228127
 20
23.344331
 40
0.2013709
 50
90
 51
0
  0
ARC
  8
_0-0_1
  6
CONTINUOUS
 62
    7
 10
31.829906
 20
22.755638
 40
0.2013709
 50
90
 51
0
  0
ARC
  8
_0-0_1
  6
CONTINUOUS
 62
    7
 10
33.003523
 20
22.986456
 40
0.2013709
 50
118.46419
 51
360
  0
ARC
  8
_0-0_1
  6
CONTINUOUS
 62
    7
 10
31.482554
 20
20.77956
 40
0.2013709
 50
90
 51
0
  0
ARC
  8
_0-0_1
  6
CONTINUOUS
 62
    7
 10
32.168481
 20
20.77956
 40
0.2013709
 50
90
 51
360
  0
ARC
  8
_0-0_1
  6
CONTINUOUS
 62
    7
 10
32.823525
 20
19.249561
 40
0.2013709
 50
90
 51
0
  0
ARC
  8
_0-0_1
  6
CONTINUOUS
 62
    7
 10
32.317596
 20
19.914696
 40
0.2013709
 50
90
 51
0
  0
ARC
  8
_0-0_1
  6
CONTINUOUS
 62
    7
 10
31.750961
 20
21.883008
 40
0.2013709
 50
90
 51
360
  0
ARC
  8
_0-0_1
  6
CONTINUOUS
 62
    7
 10
33.092992
 20
22.061946
 40
0.2013709
 50
90
 51
360
  0
ARC
  8
_0-0_1
  6
CONTINUOUS
 62
    7
 10
32.980974
 20
20.761928
 40
0.2013709
 50
90
 51
0
  0
ARC
  8
_0-0_1
  6
CONTINUOUS
 62
    7
 10
33.749096
 20
20.093633
 40
0.2013709
 50
90
 51
0
  0
ARC
  8
_0-0_1
  6
CONTINUOUS
 62
    7
 10
34.613961
 20
19.944519
 40
0.2013709
 50
90
 51
360
  0
ARC
  8
_0-0_1
  6
CONTINUOUS
 62
    7
 10
33.35712
 20
15.560445
 40
5.3923997
 50
346.99598
 51
16.940416
  0
ARC
  8
_0-0_1
  6
CONTINUOUS
 62
    7
 10
27.072113
 20
14.078062
 40
11.843833
 50
14.940886
 51
41.212507
  0
ARC
  8
_0-0_1
  6
CONTINUOUS
 62
    7
 10
30.626297
 20
17.350302
 40
7.0152208
 50
40.232993
 51
69.448232
  0
ARC
  8
_0-0_1
  6
CONTINUOUS
 62
    7
 10
38.828421
 20
19.295054
 40
6.4147448
 50
219.3812
 51
249.68724
  0
ARC
  8
_0-0_1
  6
CONTINUOUS
 62
    7
 10
42.88145
 20
23.179672
 40
12.019931
 50
195.37955
 51
221.43624
  0
ARC
  8
_0-0_1
  6
CONTINUOUS
 62
    7
 10
36.564352
 20
21.581259
 40
5.5067655
 50
165.0974
 51
196.77595
  0
ARC
  8
_0-0_1
  6
CONTINUOUS
 62
    7
 10
32.60214
 20
22.584351
 40
1.4207206
 50
69.958801
 51
163.09527
  0
ARC
  8
_0-0_1
  6
CONTINUOUS
 62
    7
 10
37.174733
 20
14.625549
 40
1.463242
 50
246.93952
 51
349.02798
  0
ARC
  8
_0-0_1
  6
CONTINUOUS
 62
    7
 10
39.250344
 20
19.928274
 40
7.5213915
 50
215.58475
 51
247.77329
  0
ARC
  8
_0-0_1
  6
CONTINUOUS
 62
    7
 10
43.097236
 20
23.312222
 40
12.629483
 50
199.49864
 51
217.9149
  0
ARC
  8
_0-0_1
  6
CONTINUOUS
 62
    7
 10
37.871841
 20
21.631895
 40
7.1446967
 50
169.38235
 51
200.78343
  0
ARC
  8
_0-0_1
  6
CONTINUOUS
 62
    7
 10
31.774442
 20
19.185252
 40
5.2620921
 50
42.65145
 51
76.429147
  0
ARC
  8
_0-0_1
  6
CONTINUOUS
 62
    7
 10
27.139253
 20
14.096556
 40
12.133951
 50
16.728071
 51
45.496028
  0
ARC
  8
_0-0_1
  6
CONTINUOUS
 62
    7
 10
32.326779
 20
15.524081
 40
6.7562444
 50
349.84751
 51
17.796746
  0
ARC
  8
_0-0_1
  6
CONTINUOUS
 62
    7
 10
37.134682
 20
14.696294
 40
1.8779945
 50
247.14306
 51
348.85119
  0
ARC
  8
_0-0_1
  6
CONTINUOUS
 62
    7
 10
32.588818
 20
22.57097
 40
1.7798128
 50
76.338656
 51
167.75893
  0
ARC
  8
_0-0_1
  6
CONTINUOUS
 62
    7
 10
37.680093
 20
15.766981
 40
4.6233246
 50
237.59453
 51
265.4041
  0
ARC
  8
_0-0_1
  6
CONTINUOUS
 62
    7
 10
35.503064
 20
14.226364
 40
4.2564383
 50
332.16362
 51
3.6929091
  0
ARC
  8
_0-0_1
  6
CONTINUOUS
 62
    7
 10
26.319358
 20
13.648343
 40
13.458312
 50
3.6303657
 51
54.95911
  0
ARC
  8
_0-0_1
  6
CONTINUOUS
 62
    7
 10
30.965311
 20
20.045948
 40
5.5543325
 50
56.306276
 51
81.009545
  0
ARC
  8
_0-0_1
  6
CONTINUOUS
 62
    7
 10
33.249998
 20
22.560332
 40
4.0202603
 50
155.2791
 51
181.28456
  0
ARC
  8
_0-0_1
  6
CONTINUOUS
 62
    7
 10
31.55871
 20
23.426733
 40
2.1231384
 50
82.569399
 51
157.4306
  0
ARC
  8
_0-0_1
  6
CONTINUOUS
 62
    7
 10
37.44112
 20
13.233624
 40
2.0792637
 50
266.37447
 51
331.41663
  0
ARC
  8
_0-0_1
  6
CONTINUOUS
 62
    7
 10
43.145279
 20
23.319932
 40
13.940452
 50
183.49457
 51
235.26577
  0
ARC
  8
_0-0_1
  6
CONTINUOUS
 62
    7
 10
27.664666
 20
23.621973
 40
4.5853845
 50
24.617331
 51
51.863968
  0
ARC
  8
_0-0_1
  6
CONTINUOUS
 62
    7
 10
29.70746
 20
26.629842
 40
0.9903245
 50
37.200142
 51
203.39356
  0
ARC
  8
_0-0_1
  6
CONTINUOUS
 62
    7
 10
32.942169
 20
26.739674
 40
4.1740506
 50
186.92182
 51
216.76094
  0
ARC
  8
_0-0_1
  6
CONTINUOUS
 62
    7
 10
51.809387
 20
22.40685
 40
2.8832659
 50
290.43535
 51
340.4759
  0
ARC
  8
_0-0_1
  6
CONTINUOUS
 62
    7
 10
48.950759
 20
23.153768
 40
5.8325688
 50
342.94619
 51
11.757162
  0
ARC
  8
_0-0_1
  6
CONTINUOUS
 62
    7
 10
40.562938
 20
21.794627
 40
14.326358
 50
10.243195
 51
54.175508
  0
ARC
  8
_0-0_1
  6
CONTINUOUS
 62
    7
 10
46.20007
 20
29.160713
 40
5.0610427
 50
57.111881
 51
84.114179
  0
ARC
  8
_0-0_1
  6
CONTINUOUS
 62
    7
 10
45.668035
 20
29.227129
 40
4.5841751
 50
50.58035
 51
85.415747
  0
ARC
  8
_0-0_1
  6
CONTINUOUS
 62
    7
 10
40.090364
 20
21.581943
 40
14.04261
 50
17.070384
 51
52.807932
  0
ARC
  8
_0-0_1
  6
CONTINUOUS
 62
    7
 10
45.188567
 20
22.7425
 40
8.8368154
 50
351.52092
 51
19.581243
  0
ARC
  8
_0-0_1
  6
CONTINUOUS
 62
    7
 10
51.160915
 20
21.991023
 40
2.8222866
 50
305.90636
 51
348.73147
  0
ARC
  8
_0-0_1
  6
CONTINUOUS
 62
    7
 10
50.564366
 20
21.574954
 40
2.7460793
 50
303.32971
 51
0.5152913
  0
ARC
  8
_0-0_1
  6
CONTINUOUS
 62
    7
 10
40.4164
 20
21.810599
 40
12.895659
 50
359.06271
 51
58.350328
  0
ARC
  8
_0-0_1
  6
CONTINUOUS
 62
    7
 10
44.872788
 20
28.785808
 40
4.621413
 50
60.006163
 51
84.361365
  0
ARC
  8
_0-0_1
  6
CONTINUOUS
 62
    7
 10
44.535854
 20
35.021471
 40
1.1703429
 50
50.302909
 51
101.68588
  0
ARC
  8
_0-0_1
  6
CONTINUOUS
 62
    7
 10
43.034579
 20
32.592167
 40
4.0180495
 50
23.511116
 51
55.966602
  0
ARC
  8
_0-0_1
  6
CONTINUOUS
 62
    7
 10
46.346319
 20
39.109828
 40
4.654025
 50
272.8887
 51
286.81212
  0
ARC
  8
_0-0_1
  6
CONTINUOUS
 62
    7
 10
46.013167
 20
28.622773
 40
6.597289
 50
75.252324
 51
89.586461
  0
ARC
  8
_0-0_1
  6
CONTINUOUS
 62
    7
 10
47.709838
 20
34.828715
 40
0.1748605
 50
264.2842
 51
95.660595
  0
ARC
  8
_0-0_1
  6
CONTINUOUS
 62
    7
 10
46.459533
 20
36.527131
 40
0.7963837
 50
111.28325
 51
270
  0
ARC
  8
_0-0_1
  6
CONTINUOUS
 62
    7
 10
45.773503
 20
29.339005
 40
8.5143876
 50
76.973981
 51
99.973964
  0
CIRCLE
  8
_0-0_1
  6
CONTINUOUS
 62
    7
 10
46.821374
 20
36.527131
 40
0.7963837
  0
TEXT
  8
_0-0_1
 62
    7
 10
39.027378
 20
0.0960887
 40
3
 41
0.9
 50
0
  1
YS1305
  0
ENDSEC
  0
EOF
