  0
SECTION
  2
HEADER
  9
$ACADVER
  1
AC1009
  9
$INSBASE
 10
0
 20
0
 30
0
  9
$EXTMIN
 10
0
 20
0
  9
$EXTMAX
 10
84.1
 20
59.4
  9
$LIMMIN
 10
0
 20
0
  9
$LIMMAX
 10
84.1
 20
59.4
  9
$LTSCALE
 40
0.1
  0
ENDSEC
  0
SECTION
  2
TABLES
  0
TABLE
  2
LTYPE
 70
     9
  0
LTYPE
  2
CONTINUOUS
 70
    64
  3
実線
 72
    65
 73
     0
 40
0.0
  0
LTYPE
  2
DASHED1
 70
    64
  3
--  --  --  --  --  --  --  --  
 72
    65
 73
     2
 40
2.5
 49
1.25
 49
-1.25
  0
LTYPE
  2
DASHED2
 70
    64
  3
----    ----    ----    ----    
 72
    65
 73
     2
 40
5.0
 49
2.5
 49
-2.5
  0
LTYPE
  2
DASHED3
 70
    64
  3
------  ------  ------  ------  
 72
    65
 73
     2
 40
5.0
 49
3.75
 49
-1.25
  0
LTYPE
  2
CENTER1
 70
    64
  3
----- - ----- - ----- - ----- - 
 72
    65
 73
     4
 40
10.0
 49
6.25
 49
-1.25
 49
1.25
 49
-1.25
  0
LTYPE
  2
CENTER2
 70
    64
  3
----------  --  ----------  --  
 72
    65
 73
     4
 40
20.0
 49
12.5
 49
-2.5
 49
2.5
 49
-2.5
  0
LTYPE
  2
PHANTOM1
 70
    64
  3
--- - - --- - - --- - - --- - - 
 72
    65
 73
     6
 40
10.0
 49
3.25
 49
-1.25
 49
1.25
 49
-1.25
 49
1.25
 49
-1.25
  0
LTYPE
  2
PHANTOM2
 70
    64
  3
--------  -  -  --------  -  -  
 72
    65
 73
     6
 40
20.0
 49
10.0
 49
-2.5
 49
1.25
 49
-2.5
 49
1.25
 49
-2.5
  0
LTYPE
  2
DOT
 70
    64
  3
-   -   -   -   -   -   -   -   
 72
    65
 73
     2
 40
2.5
 49
0.625
 49
-1.875
  0
LTYPE
  2
DUMMY
 70
    64
  3
ダミー
 72
    65
 73
     0
 40
0.0
  0
LTYPE
  2
RAND1
 70
    64
  3
----- - ----- - ----- - ----- - 
 72
    65
 73
     4
 40
10.0
 49
6.25
 49
-1.25
 49
1.25
 49
-1.25
  0
LTYPE
  2
RAND2
 70
    64
  3
----------  --  ----------  --  
 72
    65
 73
     4
 40
20.0
 49
12.5
 49
-2.5
 49
2.5
 49
-2.5
  0
LTYPE
  2
RAND3
 70
    64
  3
--- - - --- - - --- - - --- - - 
 72
    65
 73
     6
 40
10.0
 49
3.25
 49
-1.25
 49
1.25
 49
-1.25
 49
1.25
 49
-1.25
  0
LTYPE
  2
RAND4
 70
    64
  3
--------  -  -  --------  -  -  
 72
    65
 73
     6
 40
20.0
 49
10.0
 49
-2.5
 49
1.25
 49
-2.5
 49
1.25
 49
-2.5
  0
LTYPE
  2
RAND5
 70
    64
  3
----- - ----- - ----- - ----- - 
 72
    65
 73
     4
 40
10.0
 49
6.25
 49
-1.25
 49
1.25
 49
-1.25
  0
LTYPE
  2
LONG1
 70
    64
  3
----------  --  ----------  --  
 72
    65
 73
     4
 40
20.0
 49
12.5
 49
-2.5
 49
2.5
 49
-2.5
  0
LTYPE
  2
LONG2
 70
    64
  3
--- - - --- - - --- - - --- - - 
 72
    65
 73
     6
 40
10.0
 49
3.25
 49
-1.25
 49
1.25
 49
-1.25
 49
1.25
 49
-1.25
  0
LTYPE
  2
LONG3
 70
    64
  3
--------  -  -  --------  -  -  
 72
    65
 73
     6
 40
20.0
 49
10.0
 49
-2.5
 49
1.25
 49
-2.5
 49
1.25
 49
-2.5
  0
LTYPE
  2
LONG4
 70
    64
  3
----- - ----- - ----- - ----- - 
 72
    65
 73
     4
 40
10.0
 49
6.25
 49
-1.25
 49
1.25
 49
-1.25
  0
LTYPE
  2
LONG5
 70
    64
  3
----------  --  ----------  --  
 72
    65
 73
     4
 40
20.0
 49
12.5
 49
-2.5
 49
2.5
 49
-2.5
  0
ENDTAB
  0
TABLE
  2
STYLE
  5
3
100
AcDbSymbolTable
 70
     1
  0
STYLE
  5
10
100
AcDbSymbolTableRecord
100
AcDbTextStyleTableRecord
  2
STANDARD
 70
     0
 40
0.0
 41
1.0
 50
0.0
 71
     0
 42
0.2
  3
txt
  4
bigfont.shx
  0
ENDTAB
  0
TABLE
  2
LAYER
 70
    2
  0
LAYER
  2
_0-0_1
 70
   64
 62
    7
  6
CONTINUOUS
  0
LAYER
  2
ADD_LINE
 70
   64
 62
    7
  6
CONTINUOUS
  0
ENDTAB
  0
ENDSEC
  0
SECTION
  2
BLOCKS
  0
ENDSEC
  0
SECTION
  2
ENTITIES
  0
LINE
  8
_0-0_1
  6
CONTINUOUS
 62
    7
 10
33.738351
 20
15.191076
 11
35.800447
 21
18.869107
  0
LINE
  8
_0-0_1
  6
CONTINUOUS
 62
    7
 10
33.903478
 20
14.786745
 11
36.15557
 21
18.870511
  0
LINE
  8
_0-0_1
  6
CONTINUOUS
 62
    7
 10
29.36036
 20
19.072217
 11
34.831159
 21
21.84908
  0
LINE
  8
_0-0_1
  6
CONTINUOUS
 62
    7
 10
29.822836
 20
18.256087
 11
34.52335
 21
21.389862
  0
LINE
  8
_0-0_1
  6
CONTINUOUS
 62
    7
 10
28.135244
 20
24.26174
 11
33.146242
 21
24.071432
  0
LINE
  8
_0-0_1
  6
CONTINUOUS
 62
    7
 10
28.109342
 20
23.04467
 11
33.655548
 21
23.502922
  0
LINE
  8
_0-0_1
  6
CONTINUOUS
 62
    7
 10
51.075754
 20
20.859591
 11
36.217822
 21
12.28136
  0
LINE
  8
_0-0_1
  6
CONTINUOUS
 62
    7
 10
54.694047
 20
16.412904
 11
51.967853
 21
21.374644
  0
LINE
  8
_0-0_1
  6
CONTINUOUS
 62
    7
 10
53.881906
 20
15.948824
 11
54.694047
 21
16.412904
  0
LINE
  8
_0-0_1
  6
CONTINUOUS
 62
    7
 10
51.075754
 20
20.859591
 11
53.881906
 21
15.948824
  0
LINE
  8
_0-0_1
  6
CONTINUOUS
 62
    7
 10
26.084493
 20
29.832801
 11
42.576328
 21
39.321427
  0
LINE
  8
_0-0_1
  6
CONTINUOUS
 62
    7
 10
45.222289
 20
37.164999
 11
28.948318
 21
27.694082
  0
LINE
  8
_0-0_1
  6
CONTINUOUS
 62
    7
 10
44.938558
 20
38.843883
 11
45.334143
 21
38.843883
  0
LINE
  8
_0-0_1
  6
CONTINUOUS
 62
    7
 10
44.622529
 20
40.525805
 11
45.334143
 21
40.585186
  0
LINE
  8
_0-0_1
  6
CONTINUOUS
 62
    7
 10
46.286606
 20
40.924953
 11
46.286606
 21
38.047966
  0
LINE
  8
_0-0_1
  6
CONTINUOUS
 62
    7
 10
42.576328
 20
41.023797
 11
42.576328
 21
39.321427
  0
LINE
  8
_0-0_1
  6
CONTINUOUS
 62
    7
 10
41.989106
 20
51.955014
 11
41.989106
 21
39.015333
  0
LINE
  8
_0-0_1
  6
CONTINUOUS
 62
    7
 10
46.520388
 20
51.990178
 11
46.509837
 21
37.896824
  0
LINE
  8
_0-0_1
  6
CONTINUOUS
 62
    7
 10
57.821986
 20
51.487322
 11
46.520361
 21
51.487322
  0
LINE
  8
_0-0_1
  6
CONTINUOUS
 62
    7
 10
58.558432
 20
53.258227
 11
58.558432
 21
52.223769
  0
LINE
  8
_0-0_1
  6
CONTINUOUS
 62
    7
 10
57.668891
 20
52.665199
 11
57.668891
 21
58.444484
  0
LINE
  8
_0-0_1
  6
CONTINUOUS
 62
    7
 10
55.000268
 20
58.444484
 11
55.000268
 21
52.665199
  0
LINE
  8
_0-0_1
  6
CONTINUOUS
 62
    7
 10
43.350437
 20
58.444484
 11
58.558432
 21
58.444484
  0
LINE
  8
_0-0_1
  6
CONTINUOUS
 62
    7
 10
47.290912
 20
58.889255
 11
47.290912
 21
58.444484
  0
LINE
  8
_0-0_1
  6
CONTINUOUS
 62
    7
 10
58.558432
 20
58.889255
 11
47.290912
 21
58.889255
  0
LINE
  8
_0-0_1
  6
CONTINUOUS
 62
    7
 10
58.558432
 20
53.258227
 11
58.558432
 21
58.889255
  0
LINE
  8
_0-0_1
  6
CONTINUOUS
 62
    7
 10
43.49972
 20
52.665199
 11
57.965405
 21
52.665199
  0
LINE
  8
_0-0_1
  6
CONTINUOUS
 62
    7
 10
38.692015
 20
57.855546
 11
38.692015
 21
52.076261
  0
ARC
  8
_0-0_1
  6
CONTINUOUS
 62
    7
 10
30.912374
 20
18.129452
 40
0.2201501
 50
90
 51
345.188
  0
ARC
  8
_0-0_1
  6
CONTINUOUS
 62
    7
 10
31.923101
 20
18.162056
 40
0.2201501
 50
90
 51
360
  0
ARC
  8
_0-0_1
  6
CONTINUOUS
 62
    7
 10
32.7855
 20
18.006167
 40
0.2201501
 50
90
 51
360
  0
ARC
  8
_0-0_1
  6
CONTINUOUS
 62
    7
 10
33.520702
 20
18.422889
 40
0.2201501
 50
90
 51
360
  0
ARC
  8
_0-0_1
  6
CONTINUOUS
 62
    7
 10
32.216538
 20
20.476947
 40
0.2201501
 50
90
 51
360
  0
ARC
  8
_0-0_1
  6
CONTINUOUS
 62
    7
 10
31.579776
 20
20.094543
 40
0.2201501
 50
90
 51
0
  0
ARC
  8
_0-0_1
  6
CONTINUOUS
 62
    7
 10
31.0057
 20
19.132817
 40
0.2201501
 50
90
 51
0
  0
ARC
  8
_0-0_1
  6
CONTINUOUS
 62
    7
 10
30.108852
 20
19.968283
 40
0.2201501
 50
90
 51
0
  0
ARC
  8
_0-0_1
  6
CONTINUOUS
 62
    7
 10
29.379982
 20
25.302353
 40
0.2201501
 50
90
 51
0
  0
ARC
  8
_0-0_1
  6
CONTINUOUS
 62
    7
 10
28.944623
 20
24.658761
 40
0.2201501
 50
90
 51
0
  0
ARC
  8
_0-0_1
  6
CONTINUOUS
 62
    7
 10
30.227688
 20
24.911104
 40
0.2201501
 50
118.46419
 51
360
  0
ARC
  8
_0-0_1
  6
CONTINUOUS
 62
    7
 10
28.564879
 20
22.498401
 40
0.2201501
 50
90
 51
0
  0
ARC
  8
_0-0_1
  6
CONTINUOUS
 62
    7
 10
29.314773
 20
22.498401
 40
0.2201501
 50
90
 51
360
  0
ARC
  8
_0-0_1
  6
CONTINUOUS
 62
    7
 10
30.030903
 20
20.825719
 40
0.2201501
 50
90
 51
0
  0
ARC
  8
_0-0_1
  6
CONTINUOUS
 62
    7
 10
29.477794
 20
21.552882
 40
0.2201501
 50
90
 51
0
  0
ARC
  8
_0-0_1
  6
CONTINUOUS
 62
    7
 10
28.858316
 20
23.704753
 40
0.2201501
 50
90
 51
360
  0
ARC
  8
_0-0_1
  6
CONTINUOUS
 62
    7
 10
30.3255
 20
23.900377
 40
0.2201501
 50
90
 51
360
  0
ARC
  8
_0-0_1
  6
CONTINUOUS
 62
    7
 10
30.203037
 20
22.479125
 40
0.2201501
 50
90
 51
0
  0
ARC
  8
_0-0_1
  6
CONTINUOUS
 62
    7
 10
31.04279
 20
21.748507
 40
0.2201501
 50
90
 51
0
  0
ARC
  8
_0-0_1
  6
CONTINUOUS
 62
    7
 10
31.988309
 20
21.585486
 40
0.2201501
 50
90
 51
360
  0
ARC
  8
_0-0_1
  6
CONTINUOUS
 62
    7
 10
30.61426
 20
16.792569
 40
5.8952759
 50
346.99598
 51
16.940416
  0
ARC
  8
_0-0_1
  6
CONTINUOUS
 62
    7
 10
23.743136
 20
15.171944
 40
12.948347
 50
14.940886
 51
41.212507
  0
ARC
  8
_0-0_1
  6
CONTINUOUS
 62
    7
 10
27.62877
 20
18.749342
 40
7.6694356
 50
40.232993
 51
69.448232
  0
ARC
  8
_0-0_1
  6
CONTINUOUS
 62
    7
 10
36.595795
 20
20.875455
 40
7.0129613
 50
219.3812
 51
249.68724
  0
ARC
  8
_0-0_1
  6
CONTINUOUS
 62
    7
 10
41.026795
 20
25.122339
 40
13.140868
 50
195.37955
 51
221.43624
  0
ARC
  8
_0-0_1
  6
CONTINUOUS
 62
    7
 10
34.120587
 20
23.374863
 40
6.0203071
 50
165.0974
 51
196.77595
  0
ARC
  8
_0-0_1
  6
CONTINUOUS
 62
    7
 10
29.788874
 20
24.4715
 40
1.553212
 50
69.958801
 51
163.09527
  0
ARC
  8
_0-0_1
  6
CONTINUOUS
 62
    7
 10
34.78789
 20
15.770488
 40
1.5996988
 50
246.93952
 51
349.02798
  0
ARC
  8
_0-0_1
  6
CONTINUOUS
 62
    7
 10
37.057065
 20
21.567726
 40
8.22281
 50
215.58475
 51
247.77329
  0
ARC
  8
_0-0_1
  6
CONTINUOUS
 62
    7
 10
41.262705
 20
25.26725
 40
13.807264
 50
199.49864
 51
217.9149
  0
ARC
  8
_0-0_1
  6
CONTINUOUS
 62
    7
 10
35.550008
 20
23.430222
 40
7.810986
 50
169.38235
 51
200.78343
  0
ARC
  8
_0-0_1
  6
CONTINUOUS
 62
    7
 10
28.883987
 20
20.755413
 40
5.7528163
 50
42.65145
 51
76.429147
  0
ARC
  8
_0-0_1
  6
CONTINUOUS
 62
    7
 10
23.816537
 20
15.192163
 40
13.265521
 50
16.728071
 51
45.496028
  0
ARC
  8
_0-0_1
  6
CONTINUOUS
 62
    7
 10
29.487834
 20
16.752814
 40
7.386308
 50
349.84751
 51
17.796746
  0
ARC
  8
_0-0_1
  6
CONTINUOUS
 62
    7
 10
34.744104
 20
15.84783
 40
2.0531296
 50
247.14306
 51
348.85119
  0
ARC
  8
_0-0_1
  6
CONTINUOUS
 62
    7
 10
29.774309
 20
24.456871
 40
1.9457919
 50
76.338656
 51
167.75893
  0
ARC
  8
_0-0_1
  6
CONTINUOUS
 62
    7
 10
35.340379
 20
17.018366
 40
5.0544796
 50
237.59453
 51
265.4041
  0
ARC
  8
_0-0_1
  6
CONTINUOUS
 62
    7
 10
32.960327
 20
15.334076
 40
4.6533788
 50
332.16362
 51
3.6929091
  0
ARC
  8
_0-0_1
  6
CONTINUOUS
 62
    7
 10
22.920182
 20
14.702151
 40
14.713387
 50
3.6303657
 51
54.95911
  0
ARC
  8
_0-0_1
  6
CONTINUOUS
 62
    7
 10
27.999399
 20
21.696374
 40
6.07231
 50
56.306276
 51
81.009545
  0
ARC
  8
_0-0_1
  6
CONTINUOUS
 62
    7
 10
30.497148
 20
24.445241
 40
4.3951756
 50
155.2791
 51
181.28456
  0
ARC
  8
_0-0_1
  6
CONTINUOUS
 62
    7
 10
28.648137
 20
25.39244
 40
2.3211348
 50
82.569399
 51
157.4306
  0
ARC
  8
_0-0_1
  6
CONTINUOUS
 62
    7
 10
35.079119
 20
14.248757
 40
2.2731685
 50
266.37447
 51
331.41663
  0
ARC
  8
_0-0_1
  6
CONTINUOUS
 62
    7
 10
41.315229
 20
25.275678
 40
15.24049
 50
183.49457
 51
235.26577
  0
ARC
  8
_0-0_1
  6
CONTINUOUS
 62
    7
 10
24.390948
 20
25.605887
 40
5.0130013
 50
24.617331
 51
51.863968
  0
ARC
  8
_0-0_1
  6
CONTINUOUS
 62
    7
 10
26.624245
 20
28.894259
 40
1.0826787
 50
37.200142
 51
203.39356
  0
ARC
  8
_0-0_1
  6
CONTINUOUS
 62
    7
 10
30.160612
 20
29.014334
 40
4.5633079
 50
186.92182
 51
216.76094
  0
ARC
  8
_0-0_1
  6
CONTINUOUS
 62
    7
 10
50.787321
 20
24.277446
 40
3.1521492
 50
290.43535
 51
340.4759
  0
ARC
  8
_0-0_1
  6
CONTINUOUS
 62
    7
 10
47.662107
 20
25.094018
 40
6.3764937
 50
342.94619
 51
11.757162
  0
ARC
  8
_0-0_1
  6
CONTINUOUS
 62
    7
 10
38.492067
 20
23.60813
 40
15.662384
 50
10.243195
 51
54.175508
  0
ARC
  8
_0-0_1
  6
CONTINUOUS
 62
    7
 10
44.654898
 20
31.66115
 40
5.5330177
 50
57.111881
 51
84.114179
  0
ARC
  8
_0-0_1
  6
CONTINUOUS
 62
    7
 10
44.073247
 20
31.73376
 40
5.0116792
 50
50.58035
 51
85.415747
  0
ARC
  8
_0-0_1
  6
CONTINUOUS
 62
    7
 10
37.975423
 20
23.375611
 40
15.352174
 50
17.070384
 51
52.807932
  0
ARC
  8
_0-0_1
  6
CONTINUOUS
 62
    7
 10
43.549067
 20
24.644398
 40
9.6609057
 50
351.52092
 51
19.581243
  0
ARC
  8
_0-0_1
  6
CONTINUOUS
 62
    7
 10
50.078375
 20
23.82284
 40
3.0854831
 50
305.90636
 51
348.73147
  0
ARC
  8
_0-0_1
  6
CONTINUOUS
 62
    7
 10
49.426193
 20
23.367971
 40
3.002169
 50
303.32971
 51
0.5152913
  0
ARC
  8
_0-0_1
  6
CONTINUOUS
 62
    7
 10
38.331864
 20
23.625591
 40
14.098263
 50
359.06271
 51
58.350328
  0
ARC
  8
_0-0_1
  6
CONTINUOUS
 62
    7
 10
43.203838
 20
31.251283
 40
5.0523898
 50
60.006163
 51
84.361365
  0
ARC
  8
_0-0_1
  6
CONTINUOUS
 62
    7
 10
42.835483
 20
38.068462
 40
1.279485
 50
50.302909
 51
101.68588
  0
ARC
  8
_0-0_1
  6
CONTINUOUS
 62
    7
 10
41.194205
 20
35.412609
 40
4.3927587
 50
23.511116
 51
55.966602
  0
ARC
  8
_0-0_1
  6
CONTINUOUS
 62
    7
 10
44.814786
 20
42.538085
 40
5.088043
 50
272.8887
 51
286.81212
  0
ARC
  8
_0-0_1
  6
CONTINUOUS
 62
    7
 10
44.450565
 20
31.073044
 40
7.212529
 50
75.252324
 51
89.586461
  0
ARC
  8
_0-0_1
  6
CONTINUOUS
 62
    7
 10
46.305462
 20
37.857731
 40
0.1911674
 50
264.2842
 51
95.660595
  0
ARC
  8
_0-0_1
  6
CONTINUOUS
 62
    7
 10
44.938558
 20
39.714534
 40
0.8706516
 50
111.28325
 51
270
  0
ARC
  8
_0-0_1
  6
CONTINUOUS
 62
    7
 10
44.188551
 20
31.85607
 40
9.3084095
 50
76.973981
 51
99.973964
  0
ARC
  8
_0-0_1
  6
CONTINUOUS
 62
    7
 10
57.965405
 20
53.258227
 40
0.5930273
 50
270
 51
0
  0
ARC
  8
_0-0_1
  6
CONTINUOUS
 62
    7
 10
57.821986
 20
52.223769
 40
0.7364466
 50
270
 51
360
  0
ARC
  8
_0-0_1
  6
CONTINUOUS
 62
    7
 10
44.301235
 20
45.981959
 40
6.4049456
 50
69.728145
 51
111.16108
  0
ARC
  8
_0-0_1
  6
CONTINUOUS
 62
    7
 10
42.207571
 20
65.860989
 40
14.347797
 50
256.72783
 51
269.14833
  0
ARC
  8
_0-0_1
  6
CONTINUOUS
 62
    7
 10
43.021603
 20
32.290755
 40
20.380053
 50
88.655714
 51
101.69779
  0
ARC
  8
_0-0_1
  6
CONTINUOUS
 62
    7
 10
42.492839
 20
46.509759
 40
11.965498
 50
85.889942
 51
108.52078
  0
ARC
  8
_0-0_1
  6
CONTINUOUS
 62
    7
 10
38.870593
 20
52.069842
 40
0.1786934
 50
83.908961
 51
283.94222
  0
CIRCLE
  8
_0-0_1
  6
CONTINUOUS
 62
    7
 10
45.334143
 20
39.714534
 40
0.8706516
  0
TEXT
  8
_0-0_1
 62
    7
 10
38.760676
 20
0.5405919
 40
3
 41
0.9
 50
0
  1
YS1307
  0
ENDSEC
  0
EOF
