  0
SECTION
  2
HEADER
  9
$ACADVER
  1
AC1009
  9
$INSBASE
 10
0
 20
0
 30
0
  9
$EXTMIN
 10
0
 20
0
  9
$EXTMAX
 10
84.1
 20
59.4
  9
$LIMMIN
 10
0
 20
0
  9
$LIMMAX
 10
84.1
 20
59.4
  9
$LTSCALE
 40
0.1
  0
ENDSEC
  0
SECTION
  2
TABLES
  0
TABLE
  2
LTYPE
 70
     9
  0
LTYPE
  2
CONTINUOUS
 70
    64
  3
実線
 72
    65
 73
     0
 40
0.0
  0
LTYPE
  2
DASHED1
 70
    64
  3
--  --  --  --  --  --  --  --  
 72
    65
 73
     2
 40
2.5
 49
1.25
 49
-1.25
  0
LTYPE
  2
DASHED2
 70
    64
  3
----    ----    ----    ----    
 72
    65
 73
     2
 40
5.0
 49
2.5
 49
-2.5
  0
LTYPE
  2
DASHED3
 70
    64
  3
------  ------  ------  ------  
 72
    65
 73
     2
 40
5.0
 49
3.75
 49
-1.25
  0
LTYPE
  2
CENTER1
 70
    64
  3
----- - ----- - ----- - ----- - 
 72
    65
 73
     4
 40
10.0
 49
6.25
 49
-1.25
 49
1.25
 49
-1.25
  0
LTYPE
  2
CENTER2
 70
    64
  3
----------  --  ----------  --  
 72
    65
 73
     4
 40
20.0
 49
12.5
 49
-2.5
 49
2.5
 49
-2.5
  0
LTYPE
  2
PHANTOM1
 70
    64
  3
--- - - --- - - --- - - --- - - 
 72
    65
 73
     6
 40
10.0
 49
3.25
 49
-1.25
 49
1.25
 49
-1.25
 49
1.25
 49
-1.25
  0
LTYPE
  2
PHANTOM2
 70
    64
  3
--------  -  -  --------  -  -  
 72
    65
 73
     6
 40
20.0
 49
10.0
 49
-2.5
 49
1.25
 49
-2.5
 49
1.25
 49
-2.5
  0
LTYPE
  2
DOT
 70
    64
  3
-   -   -   -   -   -   -   -   
 72
    65
 73
     2
 40
2.5
 49
0.625
 49
-1.875
  0
LTYPE
  2
DUMMY
 70
    64
  3
ダミー
 72
    65
 73
     0
 40
0.0
  0
LTYPE
  2
RAND1
 70
    64
  3
----- - ----- - ----- - ----- - 
 72
    65
 73
     4
 40
10.0
 49
6.25
 49
-1.25
 49
1.25
 49
-1.25
  0
LTYPE
  2
RAND2
 70
    64
  3
----------  --  ----------  --  
 72
    65
 73
     4
 40
20.0
 49
12.5
 49
-2.5
 49
2.5
 49
-2.5
  0
LTYPE
  2
RAND3
 70
    64
  3
--- - - --- - - --- - - --- - - 
 72
    65
 73
     6
 40
10.0
 49
3.25
 49
-1.25
 49
1.25
 49
-1.25
 49
1.25
 49
-1.25
  0
LTYPE
  2
RAND4
 70
    64
  3
--------  -  -  --------  -  -  
 72
    65
 73
     6
 40
20.0
 49
10.0
 49
-2.5
 49
1.25
 49
-2.5
 49
1.25
 49
-2.5
  0
LTYPE
  2
RAND5
 70
    64
  3
----- - ----- - ----- - ----- - 
 72
    65
 73
     4
 40
10.0
 49
6.25
 49
-1.25
 49
1.25
 49
-1.25
  0
LTYPE
  2
LONG1
 70
    64
  3
----------  --  ----------  --  
 72
    65
 73
     4
 40
20.0
 49
12.5
 49
-2.5
 49
2.5
 49
-2.5
  0
LTYPE
  2
LONG2
 70
    64
  3
--- - - --- - - --- - - --- - - 
 72
    65
 73
     6
 40
10.0
 49
3.25
 49
-1.25
 49
1.25
 49
-1.25
 49
1.25
 49
-1.25
  0
LTYPE
  2
LONG3
 70
    64
  3
--------  -  -  --------  -  -  
 72
    65
 73
     6
 40
20.0
 49
10.0
 49
-2.5
 49
1.25
 49
-2.5
 49
1.25
 49
-2.5
  0
LTYPE
  2
LONG4
 70
    64
  3
----- - ----- - ----- - ----- - 
 72
    65
 73
     4
 40
10.0
 49
6.25
 49
-1.25
 49
1.25
 49
-1.25
  0
LTYPE
  2
LONG5
 70
    64
  3
----------  --  ----------  --  
 72
    65
 73
     4
 40
20.0
 49
12.5
 49
-2.5
 49
2.5
 49
-2.5
  0
ENDTAB
  0
TABLE
  2
STYLE
  5
3
100
AcDbSymbolTable
 70
     1
  0
STYLE
  5
10
100
AcDbSymbolTableRecord
100
AcDbTextStyleTableRecord
  2
STANDARD
 70
     0
 40
0.0
 41
1.0
 50
0.0
 71
     0
 42
0.2
  3
txt
  4
bigfont.shx
  0
ENDTAB
  0
TABLE
  2
LAYER
 70
    2
  0
LAYER
  2
_0-0_1
 70
   64
 62
    7
  6
CONTINUOUS
  0
LAYER
  2
ADD_LINE
 70
   64
 62
    7
  6
CONTINUOUS
  0
ENDTAB
  0
ENDSEC
  0
SECTION
  2
BLOCKS
  0
ENDSEC
  0
SECTION
  2
ENTITIES
  0
LINE
  8
_0-0_1
  6
CONTINUOUS
 62
    7
 10
36.803715
 20
11.576639
 11
39.271898
 21
15.910688
  0
LINE
  8
_0-0_1
  6
CONTINUOUS
 62
    7
 10
34.763661
 20
11.692697
 11
38.701246
 21
18.723025
  0
LINE
  8
_0-0_1
  6
CONTINUOUS
 62
    7
 10
37.790349
 20
20.781573
 11
35.883113
 21
17.526406
  0
LINE
  8
_0-0_1
  6
CONTINUOUS
 62
    7
 10
37.584411
 20
21.146984
 11
34.891539
 21
16.599581
  0
LINE
  8
_0-0_1
  6
CONTINUOUS
 62
    7
 10
32.02482
 20
13.219129
 11
37.282704
 21
21.641193
  0
LINE
  8
_0-0_1
  6
CONTINUOUS
 62
    7
 10
28.227438
 20
18.378377
 11
32.972954
 21
25.795032
  0
LINE
  8
_0-0_1
  6
CONTINUOUS
 62
    7
 10
27.793004
 20
19.559126
 11
32.019004
 21
26.198842
  0
LINE
  8
_0-0_1
  6
CONTINUOUS
 62
    7
 10
27.675519
 20
19.961031
 11
31.602567
 21
26.318974
  0
LINE
  8
_0-0_1
  6
CONTINUOUS
 62
    7
 10
42.516381
 20
19.968092
 11
44.237122
 21
21.027942
  0
LINE
  8
_0-0_1
  6
CONTINUOUS
 62
    7
 10
38.341063
 20
26.74972
 11
40.367244
 21
27.988339
  0
LINE
  8
_0-0_1
  6
CONTINUOUS
 62
    7
 10
49.390594
 20
25.898276
 11
49.214861
 21
25.807587
  0
LINE
  8
_0-0_1
  6
CONTINUOUS
 62
    7
 10
48.99757
 20
25.731183
 11
49.309512
 21
25.731183
  0
LINE
  8
_0-0_1
  6
CONTINUOUS
 62
    7
 10
49.200867
 20
25.673763
 11
49.8503
 21
25.673763
  0
LINE
  8
_0-0_1
  6
CONTINUOUS
 62
    7
 10
49.575143
 20
25.76204
 11
49.404084
 21
25.673763
  0
LINE
  8
_0-0_1
  6
CONTINUOUS
 62
    7
 10
50.611509
 20
27.889997
 11
50.438375
 21
27.800649
  0
LINE
  8
_0-0_1
  6
CONTINUOUS
 62
    7
 10
50.611509
 20
27.889997
 11
49.575145
 21
25.762453
  0
LINE
  8
_0-0_1
  6
CONTINUOUS
 62
    7
 10
50.438462
 20
27.80054
 11
49.402472
 21
25.673763
  0
LINE
  8
_0-0_1
  6
CONTINUOUS
 62
    7
 10
50.446603
 20
28.066151
 11
49.390594
 21
25.898276
  0
LINE
  8
_0-0_1
  6
CONTINUOUS
 62
    7
 10
48.812063
 20
25.836099
 11
49.270109
 21
25.836099
  0
LINE
  8
_0-0_1
  6
CONTINUOUS
 62
    7
 10
49.276372
 20
26.007073
 11
48.633408
 21
26.007073
  0
LINE
  8
_0-0_1
  6
CONTINUOUS
 62
    7
 10
49.109655
 20
26.263534
 11
48.474644
 21
26.263534
  0
LINE
  8
_0-0_1
  6
CONTINUOUS
 62
    7
 10
48.994612
 20
26.655997
 11
48.352284
 21
26.655997
  0
LINE
  8
_0-0_1
  6
CONTINUOUS
 62
    7
 10
48.352284
 20
27.277721
 11
48.985019
 21
27.277721
  0
LINE
  8
_0-0_1
  6
CONTINUOUS
 62
    7
 10
48.480192
 20
27.670185
 11
49.122002
 21
27.670185
  0
LINE
  8
_0-0_1
  6
CONTINUOUS
 62
    7
 10
48.64188
 20
27.926646
 11
49.289864
 21
27.926646
  0
LINE
  8
_0-0_1
  6
CONTINUOUS
 62
    7
 10
49.456518
 20
28.09762
 11
48.812248
 21
28.09762
  0
LINE
  8
_0-0_1
  6
CONTINUOUS
 62
    7
 10
49.631769
 20
28.202536
 11
48.99757
 21
28.202536
  0
LINE
  8
_0-0_1
  6
CONTINUOUS
 62
    7
 10
49.285051
 20
28.264826
 11
49.90316
 21
28.264826
  0
LINE
  8
_0-0_1
  6
CONTINUOUS
 62
    7
 10
42.478613
 20
47.986116
 11
41.396796
 21
47.704786
  0
LINE
  8
_0-0_1
  6
CONTINUOUS
 62
    7
 10
39.629799
 20
48.377072
 11
41.08958
 21
48.756693
  0
LINE
  8
_0-0_1
  6
CONTINUOUS
 62
    7
 10
41.088792
 20
49.021003
 11
39.565369
 21
48.624832
  0
LINE
  8
_0-0_1
  6
CONTINUOUS
 62
    7
 10
41.088792
 20
49.016565
 11
41.088792
 21
48.756488
  0
LINE
  8
_0-0_1
  6
CONTINUOUS
 62
    7
 10
44.590622
 20
48.029536
 11
44.590622
 21
48.469694
  0
LINE
  8
_0-0_1
  6
CONTINUOUS
 62
    7
 10
41.864868
 20
48.441592
 11
41.864868
 21
48.813015
  0
LINE
  8
_0-0_1
  6
CONTINUOUS
 62
    7
 10
45.209412
 20
48.802535
 11
45.209412
 21
48.418566
  0
LINE
  8
_0-0_1
  6
CONTINUOUS
 62
    7
 10
44.218855
 20
49.844921
 11
44.218855
 21
49.588921
  0
LINE
  8
_0-0_1
  6
CONTINUOUS
 62
    7
 10
44.218855
 20
49.588921
 11
46.019631
 21
50.048703
  0
LINE
  8
_0-0_1
  6
CONTINUOUS
 62
    7
 10
45.9552
 20
50.296463
 11
44.218855
 21
49.844921
  0
LINE
  8
_0-0_1
  6
CONTINUOUS
 62
    7
 10
47.208036
 20
50.197275
 11
48.870462
 21
49.507381
  0
LINE
  8
_0-0_1
  6
CONTINUOUS
 62
    7
 10
50.07403
 20
42.397018
 11
50.07403
 21
47.874702
  0
LINE
  8
_0-0_1
  6
CONTINUOUS
 62
    7
 10
48.358429
 20
27.320635
 11
48.358429
 21
48.438268
  0
LINE
  8
_0-0_1
  6
CONTINUOUS
 62
    7
 10
48.10243
 20
44.563463
 11
48.10243
 21
48.438268
  0
LINE
  8
_0-0_1
  6
CONTINUOUS
 62
    7
 10
46.132058
 20
48.924947
 11
47.821035
 21
49.364171
  0
LINE
  8
_0-0_1
  6
CONTINUOUS
 62
    7
 10
48.10243
 20
42.450711
 11
48.10243
 21
44.563463
  0
LINE
  8
_0-0_1
  6
CONTINUOUS
 62
    7
 10
48.10243
 20
34.376586
 11
48.10243
 21
42.450711
  0
LINE
  8
_0-0_1
  6
CONTINUOUS
 62
    7
 10
50.07403
 20
28.251102
 11
50.07403
 21
42.397018
  0
LINE
  8
_0-0_1
  6
CONTINUOUS
 62
    7
 10
38.384598
 20
30.57558
 11
38.384598
 21
46.766637
  0
LINE
  8
_0-0_1
  6
CONTINUOUS
 62
    7
 10
48.10243
 20
26.858636
 11
48.10243
 21
34.376586
  0
LINE
  8
_0-0_1
  6
CONTINUOUS
 62
    7
 10
40.155853
 20
31.326412
 11
40.155853
 21
46.171366
  0
LINE
  8
_0-0_1
  6
CONTINUOUS
 62
    7
 10
38.128598
 20
30.457461
 11
38.128598
 21
46.766637
  0
LINE
  8
_0-0_1
  6
CONTINUOUS
 62
    7
 10
36.454737
 20
29.567024
 11
45.803923
 21
33.880736
  0
LINE
  8
_0-0_1
  6
CONTINUOUS
 62
    7
 10
43.240943
 20
15.948443
 11
52.478197
 21
21.636992
  0
LINE
  8
_0-0_1
  6
CONTINUOUS
 62
    7
 10
55.697197
 20
51.604762
 11
57.031944
 21
56.173506
  0
LINE
  8
_0-0_1
  6
CONTINUOUS
 62
    7
 10
54.342096
 20
50.316291
 11
54.342096
 21
52.114581
  0
LINE
  8
_0-0_1
  6
CONTINUOUS
 62
    7
 10
54.342096
 20
52.114581
 11
53.74525
 21
52.429571
  0
LINE
  8
_0-0_1
  6
CONTINUOUS
 62
    7
 10
52.624391
 20
52.429571
 11
53.74525
 21
52.429571
  0
LINE
  8
_0-0_1
  6
CONTINUOUS
 62
    7
 10
53.74525
 20
50.64088
 11
53.74525
 21
52.429571
  0
LINE
  8
_0-0_1
  6
CONTINUOUS
 62
    7
 10
52.624391
 20
50.64088
 11
52.624391
 21
52.425984
  0
LINE
  8
_0-0_1
  6
CONTINUOUS
 62
    7
 10
52.041286
 20
52.079084
 11
52.624391
 21
52.425984
  0
LINE
  8
_0-0_1
  6
CONTINUOUS
 62
    7
 10
52.041286
 20
52.079084
 11
52.041286
 21
50.279058
  0
LINE
  8
_0-0_1
  6
CONTINUOUS
 62
    7
 10
50.718491
 20
50.366618
 11
49.450097
 21
49.145642
  0
LINE
  8
_0-0_1
  6
CONTINUOUS
 62
    7
 10
54.342096
 20
50.316291
 11
53.74525
 21
50.64088
  0
LINE
  8
_0-0_1
  6
CONTINUOUS
 62
    7
 10
54.147291
 20
50.187577
 11
54.342096
 21
50.316291
  0
LINE
  8
_0-0_1
  6
CONTINUOUS
 62
    7
 10
52.624391
 20
50.64088
 11
53.74525
 21
50.64088
  0
LINE
  8
_0-0_1
  6
CONTINUOUS
 62
    7
 10
52.041286
 20
50.279058
 11
52.624391
 21
50.633428
  0
LINE
  8
_0-0_1
  6
CONTINUOUS
 62
    7
 10
52.274222
 20
50.132292
 11
52.041286
 21
50.279058
  0
LINE
  8
_0-0_1
  6
CONTINUOUS
 62
    7
 10
30.318616
 20
56.173506
 11
31.653363
 21
51.604762
  0
LINE
  8
_0-0_1
  6
CONTINUOUS
 62
    7
 10
32.786378
 20
51.389707
 11
32.786378
 21
49.591417
  0
LINE
  8
_0-0_1
  6
CONTINUOUS
 62
    7
 10
33.383224
 20
51.704697
 11
32.786378
 21
51.389707
  0
LINE
  8
_0-0_1
  6
CONTINUOUS
 62
    7
 10
33.383224
 20
51.704697
 11
34.504083
 21
51.704697
  0
LINE
  8
_0-0_1
  6
CONTINUOUS
 62
    7
 10
33.383224
 20
51.704697
 11
33.383224
 21
49.916006
  0
LINE
  8
_0-0_1
  6
CONTINUOUS
 62
    7
 10
34.504083
 20
51.70111
 11
34.504083
 21
49.916006
  0
LINE
  8
_0-0_1
  6
CONTINUOUS
 62
    7
 10
34.504083
 20
51.70111
 11
35.087188
 21
51.35421
  0
LINE
  8
_0-0_1
  6
CONTINUOUS
 62
    7
 10
35.087188
 20
49.554184
 11
35.087188
 21
51.35421
  0
LINE
  8
_0-0_1
  6
CONTINUOUS
 62
    7
 10
33.383224
 20
49.916006
 11
32.786378
 21
49.591417
  0
LINE
  8
_0-0_1
  6
CONTINUOUS
 62
    7
 10
32.786378
 20
49.591417
 11
32.981182
 21
49.462702
  0
LINE
  8
_0-0_1
  6
CONTINUOUS
 62
    7
 10
33.383224
 20
49.916006
 11
34.504083
 21
49.916006
  0
LINE
  8
_0-0_1
  6
CONTINUOUS
 62
    7
 10
34.504083
 20
49.908554
 11
35.087188
 21
49.554184
  0
LINE
  8
_0-0_1
  6
CONTINUOUS
 62
    7
 10
35.087188
 20
49.554184
 11
34.854252
 21
49.407418
  0
ARC
  8
_0-0_1
  6
CONTINUOUS
 62
    7
 10
35.744081
 20
14.564046
 40
3.8852951
 50
291.69528
 51
338.82469
  0
ARC
  8
_0-0_1
  6
CONTINUOUS
 62
    7
 10
31.978339
 20
15.947624
 40
7.8968632
 50
339.3334
 51
10.601964
  0
ARC
  8
_0-0_1
  6
CONTINUOUS
 62
    7
 10
32.280795
 20
15.962669
 40
6.9954642
 50
335.92971
 51
3.9996342
  0
ARC
  8
_0-0_1
  6
CONTINUOUS
 62
    7
 10
35.612645
 20
14.543779
 40
3.3752239
 50
258.27908
 51
334.85329
  0
ARC
  8
_0-0_1
  6
CONTINUOUS
 62
    7
 10
36.147718
 20
17.796311
 40
6.6700372
 50
229.93538
 51
259.45444
  0
ARC
  8
_0-0_1
  6
CONTINUOUS
 62
    7
 10
39.812748
 20
22.664273
 40
12.758807
 50
200.0398
 51
231.41006
  0
ARC
  8
_0-0_1
  6
CONTINUOUS
 62
    7
 10
38.439643
 20
22.538423
 40
11.431141
 50
178.52475
 51
201.80588
  0
ARC
  8
_0-0_1
  6
CONTINUOUS
 62
    7
 10
36.918958
 20
22.580805
 40
10.304123
 50
177.18816
 51
192.54442
  0
ARC
  8
_0-0_1
  6
CONTINUOUS
 62
    7
 10
41.051286
 20
23.450773
 40
14.526839
 50
192.35381
 51
229.09253
  0
ARC
  8
_0-0_1
  6
CONTINUOUS
 62
    7
 10
36.894991
 20
18.862386
 40
8.3384942
 50
230.03077
 51
256.48874
  0
ARC
  8
_0-0_1
  6
CONTINUOUS
 62
    7
 10
35.716261
 20
14.350014
 40
3.6767598
 50
257.92026
 51
332.32274
  0
ARC
  8
_0-0_1
  6
CONTINUOUS
 62
    7
 10
32.933608
 20
15.654538
 40
6.7483512
 50
333.48819
 51
6.8056251
  0
ARC
  8
_0-0_1
  6
CONTINUOUS
 62
    7
 10
25.944529
 20
15.32446
 40
13.362231
 50
4.8345139
 51
50.985517
  0
ARC
  8
_0-0_1
  6
CONTINUOUS
 62
    7
 10
25.645269
 20
15.157091
 40
14.04915
 50
5.2975752
 51
39.238019
  0
ARC
  8
_0-0_1
  6
CONTINUOUS
 62
    7
 10
25.476074
 20
15.060259
 40
14.455024
 50
9.3172019
 51
48.188118
  0
ARC
  8
_0-0_1
  6
CONTINUOUS
 62
    7
 10
27.410782
 20
16.883428
 40
11.591826
 50
38.148925
 51
59.034123
  0
ARC
  8
_0-0_1
  6
CONTINUOUS
 62
    7
 10
29.089029
 20
18.944175
 40
9.1520704
 50
48.836184
 51
67.353979
  0
ARC
  8
_0-0_1
  6
CONTINUOUS
 62
    7
 10
29.986853
 20
20.294005
 40
6.9562612
 50
51.08782
 51
77.326454
  0
ARC
  8
_0-0_1
  6
CONTINUOUS
 62
    7
 10
30.143997
 20
21.255232
 40
6.4374949
 50
59.872989
 51
84.548096
  0
ARC
  8
_0-0_1
  6
CONTINUOUS
 62
    7
 10
32.632265
 20
22.923147
 40
6.0072402
 50
149.26686
 51
178.44383
  0
ARC
  8
_0-0_1
  6
CONTINUOUS
 62
    7
 10
32.869653
 20
22.658542
 40
5.8599518
 50
152.29742
 51
178.29674
  0
ARC
  8
_0-0_1
  6
CONTINUOUS
 62
    7
 10
30.6993
 20
23.744941
 40
3.4336566
 50
76.291304
 51
151.51164
  0
ARC
  8
_0-0_1
  6
CONTINUOUS
 62
    7
 10
30.849914
 20
23.622112
 40
4.1605178
 50
64.928752
 51
115.00324
  0
ARC
  8
_0-0_1
  6
CONTINUOUS
 62
    7
 10
30.473354
 20
24.150055
 40
3.5248706
 50
85.40685
 51
148.47535
  0
ARC
  8
_0-0_1
  6
CONTINUOUS
 62
    7
 10
34.242934
 20
19.678417
 40
8.7743043
 50
13.503809
 51
42.109276
  0
ARC
  8
_0-0_1
  6
CONTINUOUS
 62
    7
 10
40.156489
 20
21.121369
 40
2.6873815
 50
338.67121
 51
13.030785
  0
ARC
  8
_0-0_1
  6
CONTINUOUS
 62
    7
 10
42.189632
 20
20.345093
 40
0.5114074
 50
268.41532
 51
336.8351
  0
ARC
  8
_0-0_1
  6
CONTINUOUS
 62
    7
 10
33.185502
 20
19.596055
 40
11.5441
 50
358.59955
 51
41.281079
  0
ARC
  8
_0-0_1
  6
CONTINUOUS
 62
    7
 10
33.376988
 20
19.653254
 40
11.111305
 50
0.8226269
 51
39.51442
  0
ARC
  8
_0-0_1
  6
CONTINUOUS
 62
    7
 10
39.012811
 20
19.850329
 40
5.4744659
 50
328.20921
 51
359.607
  0
ARC
  8
_0-0_1
  6
CONTINUOUS
 62
    7
 10
39.306189
 20
19.612006
 40
5.4281566
 50
324.40259
 51
356.85202
  0
ARC
  8
_0-0_1
  6
CONTINUOUS
 62
    7
 10
41.824885
 20
17.774227
 40
2.3105645
 50
289.20161
 51
325.10313
  0
ARC
  8
_0-0_1
  6
CONTINUOUS
 62
    7
 10
41.510562
 20
18.85976
 40
3.4396116
 50
253.39305
 51
288.19896
  0
ARC
  8
_0-0_1
  6
CONTINUOUS
 62
    7
 10
41.288957
 20
18.582595
 40
2.8744995
 50
295.33238
 51
325.78527
  0
ARC
  8
_0-0_1
  6
CONTINUOUS
 62
    7
 10
41.384986
 20
18.997348
 40
3.2191465
 50
257.03909
 51
290.62376
  0
ARC
  8
_0-0_1
  6
CONTINUOUS
 62
    7
 10
35.16193
 20
21.19034
 40
8.7564239
 50
39.186612
 51
57.941356
  0
ARC
  8
_0-0_1
  6
CONTINUOUS
 62
    7
 10
35.651313
 20
21.898245
 40
8.1728625
 50
40.557389
 51
63.509192
  0
ARC
  8
_0-0_1
  6
CONTINUOUS
 62
    7
 10
37.233627
 20
24.472591
 40
4.8750885
 50
58.101171
 51
84.510243
  0
ARC
  8
_0-0_1
  6
CONTINUOUS
 62
    7
 10
37.055774
 20
22.289305
 40
4.9370893
 50
41.519815
 51
63.202677
  0
ARC
  8
_0-0_1
  6
CONTINUOUS
 62
    7
 10
38.704426
 20
25.363215
 40
1.4525596
 50
66.587807
 51
98.839036
  0
ARC
  8
_0-0_1
  6
CONTINUOUS
 62
    7
 10
38.568065
 20
26.323446
 40
0.4829487
 50
100.35858
 51
153.2222
  0
ARC
  8
_0-0_1
  6
CONTINUOUS
 62
    7
 10
37.320665
 20
25.168144
 40
4.5018025
 50
63.961364
 51
91.686961
  0
ARC
  8
_0-0_1
  6
CONTINUOUS
 62
    7
 10
37.149544
 20
27.234327
 40
2.4339745
 50
89.091468
 51
133.74684
  0
ARC
  8
_0-0_1
  6
CONTINUOUS
 62
    7
 10
37.882455
 20
26.213165
 40
3.6826919
 50
130.99746
 51
162.46749
  0
ARC
  8
_0-0_1
  6
CONTINUOUS
 62
    7
 10
37.433413
 20
26.581642
 40
2.7565993
 50
84.449998
 51
132.82978
  0
ARC
  8
_0-0_1
  6
CONTINUOUS
 62
    7
 10
37.981429
 20
26.061949
 40
3.51062
 50
133.62305
 51
159.81153
  0
ARC
  8
_0-0_1
  6
CONTINUOUS
 62
    7
 10
8.4266422
 20
30.40515
 40
35.365751
 50
331.50405
 51
343.31971
  0
ARC
  8
_0-0_1
  6
CONTINUOUS
 62
    7
 10
35.526132
 20
20.374597
 40
6.779188
 50
358.98141
 51
62.94512
  0
ARC
  8
_0-0_1
  6
CONTINUOUS
 62
    7
 10
29.15149
 20
-7.2932587
 40
35.007096
 50
74.325199
 51
85.359065
  0
ARC
  8
_0-0_1
  6
CONTINUOUS
 62
    7
 10
49.933079
 20
27.500402
 40
0.7640544
 50
47.77026
 51
135.72941
  0
ARC
  8
_0-0_1
  6
CONTINUOUS
 62
    7
 10
49.552943
 20
27.138385
 40
1.1057038
 50
36.794864
 51
42.980125
  0
ARC
  8
_0-0_1
  6
CONTINUOUS
 62
    7
 10
49.842289
 20
26.477852
 40
0.9173654
 50
226.99064
 51
241.22538
  0
ARC
  8
_0-0_1
  6
CONTINUOUS
 62
    7
 10
49.392487
 20
26.845076
 40
1.2901288
 50
179.39779
 51
226.24461
  0
ARC
  8
_0-0_1
  6
CONTINUOUS
 62
    7
 10
48.970989
 20
26.452211
 40
0.715613
 50
228.86766
 51
270.54276
  0
ARC
  8
_0-0_1
  6
CONTINUOUS
 62
    7
 10
49.370126
 20
26.629615
 40
0.9707219
 50
198.64062
 51
259.95832
  0
ARC
  8
_0-0_1
  6
CONTINUOUS
 62
    7
 10
49.972129
 20
26.95919
 40
1.6508451
 50
176.11163
 51
202.80454
  0
ARC
  8
_0-0_1
  6
CONTINUOUS
 62
    7
 10
49.82274
 20
27.002962
 40
1.499207
 50
137.75342
 51
177.39356
  0
ARC
  8
_0-0_1
  6
CONTINUOUS
 62
    7
 10
49.311596
 20
27.433525
 40
0.8317245
 50
91.828924
 51
136.03606
  0
ARC
  8
_0-0_1
  6
CONTINUOUS
 62
    7
 10
50.080306
 20
26.716638
 40
1.0722837
 50
188.19126
 51
229.83059
  0
ARC
  8
_0-0_1
  6
CONTINUOUS
 62
    7
 10
50.442161
 20
26.989267
 40
1.4854179
 50
135.31918
 51
196.64184
  0
ARC
  8
_0-0_1
  6
CONTINUOUS
 62
    7
 10
49.588576
 20
26.843875
 40
1.2934537
 50
304.53066
 51
349.93804
  0
ARC
  8
_0-0_1
  6
CONTINUOUS
 62
    7
 10
49.934568
 20
26.40787
 40
0.7391093
 50
240.90264
 51
301.59233
  0
ARC
  8
_0-0_1
  6
CONTINUOUS
 62
    7
 10
49.306084
 20
26.972064
 40
1.5958493
 50
347.1774
 51
35.113653
  0
ARC
  8
_0-0_1
  6
CONTINUOUS
 62
    7
 10
44.308689
 20
48.238207
 40
0.3647912
 50
39.388351
 51
73.17393
  0
ARC
  8
_0-0_1
  6
CONTINUOUS
 62
    7
 10
43.556919
 20
45.765357
 40
2.949389
 50
73.100582
 51
109.39586
  0
ARC
  8
_0-0_1
  6
CONTINUOUS
 62
    7
 10
42.610231
 20
48.411589
 40
0.1396707
 50
103.5751
 51
197.70028
  0
ARC
  8
_0-0_1
  6
CONTINUOUS
 62
    7
 10
42.795798
 20
49.583998
 40
1.5403638
 50
235.72287
 51
258.04753
  0
ARC
  8
_0-0_1
  6
CONTINUOUS
 62
    7
 10
42.028482
 20
48.440499
 40
0.1636175
 50
122.39616
 51
232.23174
  0
ARC
  8
_0-0_1
  6
CONTINUOUS
 62
    7
 10
42.746672
 20
47.437038
 40
1.3973826
 50
96.18547
 51
125.2178
  0
ARC
  8
_0-0_1
  6
CONTINUOUS
 62
    7
 10
43.536892
 20
43.41583
 40
5.4916395
 50
80.057135
 51
99.864121
  0
ARC
  8
_0-0_1
  6
CONTINUOUS
 62
    7
 10
44.249428
 20
47.21702
 40
1.625148
 50
57.412225
 51
81.66137
  0
ARC
  8
_0-0_1
  6
CONTINUOUS
 62
    7
 10
44.30201
 20
49.566639
 40
1.5186903
 50
281.181
 51
302.33524
  0
ARC
  8
_0-0_1
  6
CONTINUOUS
 62
    7
 10
45.038747
 20
48.437656
 40
0.1717289
 50
296.10683
 51
59.959099
  0
ARC
  8
_0-0_1
  6
CONTINUOUS
 62
    7
 10
43.789235
 20
53.301581
 40
5.3088453
 50
278.68217
 51
285.53682
  0
ARC
  8
_0-0_1
  6
CONTINUOUS
 62
    7
 10
44.730367
 20
50.181041
 40
2.0514693
 50
283.55678
 51
307.86126
  0
ARC
  8
_0-0_1
  6
CONTINUOUS
 62
    7
 10
45.728782
 20
48.873394
 40
0.406557
 50
309.88009
 51
7.2849544
  0
ARC
  8
_0-0_1
  6
CONTINUOUS
 62
    7
 10
44.71254
 20
83.10588
 40
35.556034
 50
264.64916
 51
266.44075
  0
ARC
  8
_0-0_1
  6
CONTINUOUS
 62
    7
 10
41.661487
 20
48.603096
 40
0.5921739
 50
117.13552
 51
164.96681
  0
ARC
  8
_0-0_1
  6
CONTINUOUS
 62
    7
 10
42.629618
 20
47.032874
 40
2.4354665
 50
102.30502
 51
120.55808
  0
ARC
  8
_0-0_1
  6
CONTINUOUS
 62
    7
 10
43.751619
 20
42.491385
 40
7.1128985
 50
86.233611
 51
103.33905
  0
ARC
  8
_0-0_1
  6
CONTINUOUS
 62
    7
 10
43.760114
 20
42.333074
 40
7.5258415
 50
86.505343
 51
99.415721
  0
ARC
  8
_0-0_1
  6
CONTINUOUS
 62
    7
 10
43.088264
 20
46.069726
 40
3.7299748
 50
98.624698
 51
116.06778
  0
ARC
  8
_0-0_1
  6
CONTINUOUS
 62
    7
 10
41.737473
 20
48.800192
 40
0.6838162
 50
114.93479
 51
161.1232
  0
ARC
  8
_0-0_1
  6
CONTINUOUS
 62
    7
 10
43.541437
 20
44.362271
 40
4.9027767
 50
74.583179
 51
105.87382
  0
ARC
  8
_0-0_1
  6
CONTINUOUS
 62
    7
 10
42.286405
 20
48.624314
 40
0.4618458
 50
100.72843
 51
155.88429
  0
ARC
  8
_0-0_1
  6
CONTINUOUS
 62
    7
 10
44.664631
 20
48.483627
 40
0.6312589
 50
30.344195
 51
73.417795
  0
ARC
  8
_0-0_1
  6
CONTINUOUS
 62
    7
 10
49.93111
 20
36.958121
 40
7.5540547
 50
306.90709
 51
88.494764
  0
ARC
  8
_0-0_1
  6
CONTINUOUS
 62
    7
 10
48.412938
 20
27.361952
 40
7.0215029
 50
305.37832
 51
76.315685
  0
ARC
  8
_0-0_1
  6
CONTINUOUS
 62
    7
 10
49.93111
 20
36.958121
 40
5.4407748
 50
306.05856
 51
88.494764
  0
ARC
  8
_0-0_1
  6
CONTINUOUS
 62
    7
 10
48.412938
 20
27.361952
 40
7.0215029
 50
92.534587
 51
111.81278
  0
ARC
  8
_0-0_1
  6
CONTINUOUS
 62
    7
 10
48.224492
 20
48.199245
 40
3.6378299
 50
182.67388
 51
268.07716
  0
ARC
  8
_0-0_1
  6
CONTINUOUS
 62
    7
 10
48.224492
 20
48.199245
 40
5.7498299
 50
178.30694
 51
268.78358
  0
ARC
  8
_0-0_1
  6
CONTINUOUS
 62
    7
 10
55.797696
 20
56.118533
 40
1.2354715
 50
2.5502806
 51
50.207638
  0
ARC
  8
_0-0_1
  6
CONTINUOUS
 62
    7
 10
52.039319
 20
51.900175
 40
6.8846829
 50
48.642533
 51
68.565502
  0
ARC
  8
_0-0_1
  6
CONTINUOUS
 62
    7
 10
46.349498
 20
36.203091
 40
23.579472
 50
69.634746
 51
82.289377
  0
ARC
  8
_0-0_1
  6
CONTINUOUS
 62
    7
 10
54.440551
 20
51.594479
 40
1.2566879
 50
324.44978
 51
25.590542
  0
ARC
  8
_0-0_1
  6
CONTINUOUS
 62
    7
 10
52.120673
 20
49.845006
 40
4.1448482
 50
33.576091
 51
65.075627
  0
ARC
  8
_0-0_1
  6
CONTINUOUS
 62
    7
 10
51.012444
 20
54.791142
 40
5.9355963
 50
283.52565
 51
318.57372
  0
ARC
  8
_0-0_1
  6
CONTINUOUS
 62
    7
 10
46.285885
 20
68.116292
 40
20.051246
 50
280.54529
 51
287.75561
  0
ARC
  8
_0-0_1
  6
CONTINUOUS
 62
    7
 10
44.154436
 20
59.338797
 40
11.71947
 50
272.34238
 51
289.68658
  0
ARC
  8
_0-0_1
  6
CONTINUOUS
 62
    7
 10
44.0905
 20
80.617583
 40
32.749529
 50
275.43152
 51
277.0366
  0
ARC
  8
_0-0_1
  6
CONTINUOUS
 62
    7
 10
48.080746
 20
49.262629
 40
1.5876106
 50
3.2722433
 51
60.965181
  0
ARC
  8
_0-0_1
  6
CONTINUOUS
 62
    7
 10
45.014508
 20
43.325059
 40
8.2695864
 50
62.35696
 51
80.660999
  0
ARC
  8
_0-0_1
  6
CONTINUOUS
 62
    7
 10
50.05503
 20
50.886154
 40
0.8426733
 50
321.93657
 51
40.29409
  0
ARC
  8
_0-0_1
  6
CONTINUOUS
 62
    7
 10
47.671632
 20
48.15999
 40
4.4562073
 50
47.227967
 51
73.372263
  0
ARC
  8
_0-0_1
  6
CONTINUOUS
 62
    7
 10
54.045177
 20
50.297043
 40
0.1348248
 50
337.20448
 51
55.003204
  0
ARC
  8
_0-0_1
  6
CONTINUOUS
 62
    7
 10
53.198112
 20
50.588356
 40
1.0303234
 50
315.28764
 51
340.5224
  0
ARC
  8
_0-0_1
  6
CONTINUOUS
 62
    7
 10
53.198112
 20
50.588356
 40
1.0303234
 50
224.53222
 51
315.28764
  0
ARC
  8
_0-0_1
  6
CONTINUOUS
 62
    7
 10
53.198107
 20
50.588353
 40
1.0303178
 50
198.08496
 51
224.53229
  0
ARC
  8
_0-0_1
  6
CONTINUOUS
 62
    7
 10
52.462098
 20
50.249463
 40
0.2441533
 50
124.20458
 51
175.52483
  0
ARC
  8
_0-0_1
  6
CONTINUOUS
 62
    7
 10
53.085157
 20
48.992384
 40
1.6452231
 50
90.722689
 51
117.52472
  0
ARC
  8
_0-0_1
  6
CONTINUOUS
 62
    7
 10
53.658547
 20
49.857975
 40
0.7191812
 50
49.825536
 51
73.179854
  0
ARC
  8
_0-0_1
  6
CONTINUOUS
 62
    7
 10
53.251372
 20
48.560109
 40
2.0793936
 50
72.788755
 51
88.416879
  0
ARC
  8
_0-0_1
  6
CONTINUOUS
 62
    7
 10
46.955874
 20
38.276853
 40
16.813245
 50
65.727529
 51
79.956594
  0
ARC
  8
_0-0_1
  6
CONTINUOUS
 62
    7
 10
31.552864
 20
56.118533
 40
1.2354715
 50
129.79236
 51
177.44971
  0
ARC
  8
_0-0_1
  6
CONTINUOUS
 62
    7
 10
35.31124
 20
51.900175
 40
6.8846829
 50
111.43449
 51
131.35746
  0
ARC
  8
_0-0_1
  6
CONTINUOUS
 62
    7
 10
41.001061
 20
36.203091
 40
23.579472
 50
97.710622
 51
110.36525
  0
ARC
  8
_0-0_1
  6
CONTINUOUS
 62
    7
 10
32.910009
 20
51.594479
 40
1.2566879
 50
154.40945
 51
215.55021
  0
ARC
  8
_0-0_1
  6
CONTINUOUS
 62
    7
 10
35.229886
 20
49.845006
 40
4.1448482
 50
114.92437
 51
146.4239
  0
ARC
  8
_0-0_1
  6
CONTINUOUS
 62
    7
 10
36.338116
 20
54.791142
 40
5.9355963
 50
253.27115
 51
256.47434
  0
ARC
  8
_0-0_1
  6
CONTINUOUS
 62
    7
 10
41.064674
 20
68.116292
 40
20.051246
 50
252.24438
 51
259.4547
  0
ARC
  8
_0-0_1
  6
CONTINUOUS
 62
    7
 10
37.295529
 20
50.886154
 40
0.8426733
 50
139.7059
 51
218.06342
  0
ARC
  8
_0-0_1
  6
CONTINUOUS
 62
    7
 10
39.678927
 20
48.15999
 40
4.4562073
 50
106.62773
 51
132.77203
  0
ARC
  8
_0-0_1
  6
CONTINUOUS
 62
    7
 10
33.083296
 20
49.572169
 40
0.1348248
 50
124.99679
 51
202.79551
  0
ARC
  8
_0-0_1
  6
CONTINUOUS
 62
    7
 10
33.930362
 20
49.863481
 40
1.0303234
 50
199.47759
 51
224.71235
  0
ARC
  8
_0-0_1
  6
CONTINUOUS
 62
    7
 10
33.930362
 20
49.863481
 40
1.0303234
 50
224.71235
 51
315.46777
  0
ARC
  8
_0-0_1
  6
CONTINUOUS
 62
    7
 10
33.930367
 20
49.863478
 40
1.0303178
 50
315.4677
 51
341.91503
  0
ARC
  8
_0-0_1
  6
CONTINUOUS
 62
    7
 10
34.666376
 20
49.524589
 40
0.2441533
 50
4.4751651
 51
55.795418
  0
ARC
  8
_0-0_1
  6
CONTINUOUS
 62
    7
 10
34.043317
 20
48.26751
 40
1.6452231
 50
62.475272
 51
89.27731
  0
ARC
  8
_0-0_1
  6
CONTINUOUS
 62
    7
 10
33.469927
 20
49.133101
 40
0.7191812
 50
106.82014
 51
130.17446
  0
ARC
  8
_0-0_1
  6
CONTINUOUS
 62
    7
 10
33.877101
 20
47.835235
 40
2.0793936
 50
91.58312
 51
107.21124
  0
ARC
  8
_0-0_1
  6
CONTINUOUS
 62
    7
 10
40.394686
 20
38.276853
 40
16.813245
 50
100.0434
 51
114.27247
  0
ARC
  8
_0-0_1
  6
CONTINUOUS
 62
    7
 10
43.67528
 20
16.22604
 40
43.734707
 50
82.329046
 51
97.670953
  0
ARC
  8
_0-0_1
  6
CONTINUOUS
 62
    7
 10
43.67528
 20
19.921161
 40
35.459782
 50
79.90942
 51
100.09057
  0
ARC
  8
_0-0_1
  6
CONTINUOUS
 62
    7
 10
43.67528
 20
33.166237
 40
19.971876
 50
74.695639
 51
105.30436
  0
ARC
  8
_0-0_1
  6
CONTINUOUS
 62
    7
 10
43.510961
 20
34.89154
 40
16.835705
 50
80.269408
 51
102.61888
  0
ARC
  8
_0-0_1
  6
CONTINUOUS
 62
    7
 10
43.691198
 20
43.1715
 40
7.5203827
 50
71.737481
 51
109.05955
  0
ARC
  8
_0-0_1
  6
CONTINUOUS
 62
    7
 10
41.575694
 20
49.268153
 40
1.0671662
 50
108.59433
 51
150.30318
  0
ARC
  8
_0-0_1
  6
CONTINUOUS
 62
    7
 10
41.317069
 20
49.737779
 40
0.6709828
 50
174.95035
 51
250.67753
  0
ARC
  8
_0-0_1
  6
CONTINUOUS
 62
    7
 10
38.222636
 20
49.650266
 40
0.85218
 50
144.34798
 51
233.34972
  0
ARC
  8
_0-0_1
  6
CONTINUOUS
 62
    7
 10
40.771694
 20
46.632666
 40
4.780977
 50
101.32358
 51
132.68775
  0
ARC
  8
_0-0_1
  6
CONTINUOUS
 62
    7
 10
40.115962
 20
51.770062
 40
3.691784
 50
229.41023
 51
250.45904
  0
ARC
  8
_0-0_1
  6
CONTINUOUS
 62
    7
 10
44.452425
 20
87.859341
 40
40.081845
 50
259.85881
 51
261.82672
  0
ARC
  8
_0-0_1
  6
CONTINUOUS
 62
    7
 10
5.1034116
 20
25.576746
 40
40.10728
 50
36.240354
 51
38.176722
  0
ARC
  8
_0-0_1
  6
CONTINUOUS
 62
    7
 10
34.448245
 20
52.667915
 40
3.1323896
 50
215.16606
 51
237.95787
  0
ARC
  8
_0-0_1
  6
CONTINUOUS
 62
    7
 10
48.159979
 20
47.723673
 40
1.92
 50
355.48838
 51
68.281721
  0
ARC
  8
_0-0_1
  6
CONTINUOUS
 62
    7
 10
41.817738
 20
46.094705
 40
1.6639999
 50
104.57706
 51
177.11072
  0
ARC
  8
_0-0_1
  6
CONTINUOUS
 62
    7
 10
46.43843
 20
48.438268
 40
1.9199999
 50
0
 51
104.57706
  0
ARC
  8
_0-0_1
  6
CONTINUOUS
 62
    7
 10
46.43843
 20
48.438268
 40
1.6639999
 50
0
 51
104.57706
  0
ARC
  8
_0-0_1
  6
CONTINUOUS
 62
    7
 10
40.048598
 20
46.766637
 40
1.9199998
 50
104.57706
 51
180
  0
ARC
  8
_0-0_1
  6
CONTINUOUS
 62
    7
 10
40.048598
 20
46.766637
 40
1.6639999
 50
104.57706
 51
180
  0
TEXT
  8
_0-0_1
 62
    7
 10
30.766966
 20
-0.5607478
 40
3
 41
0.9
 50
0
  1
YS1309
  0
ENDSEC
  0
EOF
