  0
SECTION
  2
HEADER
  9
$ACADVER
  1
AC1009
  9
$INSBASE
 10
0
 20
0
 30
0
  9
$EXTMIN
 10
0
 20
0
  9
$EXTMAX
 10
84.1
 20
59.4
  9
$LIMMIN
 10
0
 20
0
  9
$LIMMAX
 10
84.1
 20
59.4
  9
$LTSCALE
 40
0.1
  0
ENDSEC
  0
SECTION
  2
TABLES
  0
TABLE
  2
LTYPE
 70
     9
  0
LTYPE
  2
CONTINUOUS
 70
    64
  3
実線
 72
    65
 73
     0
 40
0.0
  0
LTYPE
  2
DASHED1
 70
    64
  3
--  --  --  --  --  --  --  --  
 72
    65
 73
     2
 40
2.5
 49
1.25
 49
-1.25
  0
LTYPE
  2
DASHED2
 70
    64
  3
----    ----    ----    ----    
 72
    65
 73
     2
 40
5.0
 49
2.5
 49
-2.5
  0
LTYPE
  2
DASHED3
 70
    64
  3
------  ------  ------  ------  
 72
    65
 73
     2
 40
5.0
 49
3.75
 49
-1.25
  0
LTYPE
  2
CENTER1
 70
    64
  3
----- - ----- - ----- - ----- - 
 72
    65
 73
     4
 40
10.0
 49
6.25
 49
-1.25
 49
1.25
 49
-1.25
  0
LTYPE
  2
CENTER2
 70
    64
  3
----------  --  ----------  --  
 72
    65
 73
     4
 40
20.0
 49
12.5
 49
-2.5
 49
2.5
 49
-2.5
  0
LTYPE
  2
PHANTOM1
 70
    64
  3
--- - - --- - - --- - - --- - - 
 72
    65
 73
     6
 40
10.0
 49
3.25
 49
-1.25
 49
1.25
 49
-1.25
 49
1.25
 49
-1.25
  0
LTYPE
  2
PHANTOM2
 70
    64
  3
--------  -  -  --------  -  -  
 72
    65
 73
     6
 40
20.0
 49
10.0
 49
-2.5
 49
1.25
 49
-2.5
 49
1.25
 49
-2.5
  0
LTYPE
  2
DOT
 70
    64
  3
-   -   -   -   -   -   -   -   
 72
    65
 73
     2
 40
2.5
 49
0.625
 49
-1.875
  0
LTYPE
  2
DUMMY
 70
    64
  3
ダミー
 72
    65
 73
     0
 40
0.0
  0
LTYPE
  2
RAND1
 70
    64
  3
----- - ----- - ----- - ----- - 
 72
    65
 73
     4
 40
10.0
 49
6.25
 49
-1.25
 49
1.25
 49
-1.25
  0
LTYPE
  2
RAND2
 70
    64
  3
----------  --  ----------  --  
 72
    65
 73
     4
 40
20.0
 49
12.5
 49
-2.5
 49
2.5
 49
-2.5
  0
LTYPE
  2
RAND3
 70
    64
  3
--- - - --- - - --- - - --- - - 
 72
    65
 73
     6
 40
10.0
 49
3.25
 49
-1.25
 49
1.25
 49
-1.25
 49
1.25
 49
-1.25
  0
LTYPE
  2
RAND4
 70
    64
  3
--------  -  -  --------  -  -  
 72
    65
 73
     6
 40
20.0
 49
10.0
 49
-2.5
 49
1.25
 49
-2.5
 49
1.25
 49
-2.5
  0
LTYPE
  2
RAND5
 70
    64
  3
----- - ----- - ----- - ----- - 
 72
    65
 73
     4
 40
10.0
 49
6.25
 49
-1.25
 49
1.25
 49
-1.25
  0
LTYPE
  2
LONG1
 70
    64
  3
----------  --  ----------  --  
 72
    65
 73
     4
 40
20.0
 49
12.5
 49
-2.5
 49
2.5
 49
-2.5
  0
LTYPE
  2
LONG2
 70
    64
  3
--- - - --- - - --- - - --- - - 
 72
    65
 73
     6
 40
10.0
 49
3.25
 49
-1.25
 49
1.25
 49
-1.25
 49
1.25
 49
-1.25
  0
LTYPE
  2
LONG3
 70
    64
  3
--------  -  -  --------  -  -  
 72
    65
 73
     6
 40
20.0
 49
10.0
 49
-2.5
 49
1.25
 49
-2.5
 49
1.25
 49
-2.5
  0
LTYPE
  2
LONG4
 70
    64
  3
----- - ----- - ----- - ----- - 
 72
    65
 73
     4
 40
10.0
 49
6.25
 49
-1.25
 49
1.25
 49
-1.25
  0
LTYPE
  2
LONG5
 70
    64
  3
----------  --  ----------  --  
 72
    65
 73
     4
 40
20.0
 49
12.5
 49
-2.5
 49
2.5
 49
-2.5
  0
ENDTAB
  0
TABLE
  2
STYLE
  5
3
100
AcDbSymbolTable
 70
     1
  0
STYLE
  5
10
100
AcDbSymbolTableRecord
100
AcDbTextStyleTableRecord
  2
STANDARD
 70
     0
 40
0.0
 41
1.0
 50
0.0
 71
     0
 42
0.2
  3
txt
  4
bigfont.shx
  0
ENDTAB
  0
TABLE
  2
LAYER
 70
    2
  0
LAYER
  2
_0-0_1
 70
   64
 62
    7
  6
CONTINUOUS
  0
LAYER
  2
ADD_LINE
 70
   64
 62
    7
  6
CONTINUOUS
  0
ENDTAB
  0
ENDSEC
  0
SECTION
  2
BLOCKS
  0
ENDSEC
  0
SECTION
  2
ENTITIES
  0
LINE
  8
_0-0_1
  6
CONTINUOUS
 62
    7
 10
36.803715
 20
11.547004
 11
39.271898
 21
15.881054
  0
LINE
  8
_0-0_1
  6
CONTINUOUS
 62
    7
 10
34.763661
 20
11.663062
 11
38.701246
 21
18.69339
  0
LINE
  8
_0-0_1
  6
CONTINUOUS
 62
    7
 10
37.790349
 20
20.751938
 11
35.883113
 21
17.496771
  0
LINE
  8
_0-0_1
  6
CONTINUOUS
 62
    7
 10
37.584411
 20
21.11735
 11
34.891539
 21
16.569947
  0
LINE
  8
_0-0_1
  6
CONTINUOUS
 62
    7
 10
32.02482
 20
13.189494
 11
37.282704
 21
21.611559
  0
LINE
  8
_0-0_1
  6
CONTINUOUS
 62
    7
 10
28.227438
 20
18.348743
 11
32.972954
 21
25.765397
  0
LINE
  8
_0-0_1
  6
CONTINUOUS
 62
    7
 10
27.793004
 20
19.529491
 11
32.019004
 21
26.169208
  0
LINE
  8
_0-0_1
  6
CONTINUOUS
 62
    7
 10
27.675519
 20
19.931396
 11
31.602567
 21
26.28934
  0
LINE
  8
_0-0_1
  6
CONTINUOUS
 62
    7
 10
42.516381
 20
19.938458
 11
44.237122
 21
20.998307
  0
LINE
  8
_0-0_1
  6
CONTINUOUS
 62
    7
 10
38.341063
 20
26.720086
 11
40.367244
 21
27.958705
  0
LINE
  8
_0-0_1
  6
CONTINUOUS
 62
    7
 10
49.390594
 20
25.868642
 11
49.214861
 21
25.777953
  0
LINE
  8
_0-0_1
  6
CONTINUOUS
 62
    7
 10
48.99757
 20
25.701548
 11
49.309512
 21
25.701548
  0
LINE
  8
_0-0_1
  6
CONTINUOUS
 62
    7
 10
49.200867
 20
25.644128
 11
49.8503
 21
25.644128
  0
LINE
  8
_0-0_1
  6
CONTINUOUS
 62
    7
 10
49.575143
 20
25.732405
 11
49.404084
 21
25.644128
  0
LINE
  8
_0-0_1
  6
CONTINUOUS
 62
    7
 10
50.611509
 20
27.860362
 11
50.438375
 21
27.771014
  0
LINE
  8
_0-0_1
  6
CONTINUOUS
 62
    7
 10
50.611509
 20
27.860362
 11
49.575145
 21
25.732819
  0
LINE
  8
_0-0_1
  6
CONTINUOUS
 62
    7
 10
50.438462
 20
27.770906
 11
49.402472
 21
25.644128
  0
LINE
  8
_0-0_1
  6
CONTINUOUS
 62
    7
 10
50.446603
 20
28.036516
 11
49.390594
 21
25.868642
  0
LINE
  8
_0-0_1
  6
CONTINUOUS
 62
    7
 10
48.812063
 20
25.806464
 11
49.270109
 21
25.806464
  0
LINE
  8
_0-0_1
  6
CONTINUOUS
 62
    7
 10
49.276372
 20
25.977438
 11
48.633408
 21
25.977438
  0
LINE
  8
_0-0_1
  6
CONTINUOUS
 62
    7
 10
49.109655
 20
26.2339
 11
48.474644
 21
26.2339
  0
LINE
  8
_0-0_1
  6
CONTINUOUS
 62
    7
 10
48.994612
 20
26.626363
 11
48.352284
 21
26.626363
  0
LINE
  8
_0-0_1
  6
CONTINUOUS
 62
    7
 10
48.352284
 20
27.248087
 11
48.985019
 21
27.248087
  0
LINE
  8
_0-0_1
  6
CONTINUOUS
 62
    7
 10
48.480192
 20
27.64055
 11
49.122002
 21
27.64055
  0
LINE
  8
_0-0_1
  6
CONTINUOUS
 62
    7
 10
48.64188
 20
27.897011
 11
49.289864
 21
27.897011
  0
LINE
  8
_0-0_1
  6
CONTINUOUS
 62
    7
 10
49.456518
 20
28.067986
 11
48.812248
 21
28.067986
  0
LINE
  8
_0-0_1
  6
CONTINUOUS
 62
    7
 10
49.631769
 20
28.172902
 11
48.99757
 21
28.172902
  0
LINE
  8
_0-0_1
  6
CONTINUOUS
 62
    7
 10
49.285051
 20
28.235191
 11
49.90316
 21
28.235191
  0
LINE
  8
_0-0_1
  6
CONTINUOUS
 62
    7
 10
42.478613
 20
47.956481
 11
41.396796
 21
47.675151
  0
LINE
  8
_0-0_1
  6
CONTINUOUS
 62
    7
 10
39.629799
 20
48.347438
 11
41.08958
 21
48.727058
  0
LINE
  8
_0-0_1
  6
CONTINUOUS
 62
    7
 10
41.088792
 20
48.991368
 11
39.565369
 21
48.595197
  0
LINE
  8
_0-0_1
  6
CONTINUOUS
 62
    7
 10
41.088792
 20
48.98693
 11
41.088792
 21
48.726854
  0
LINE
  8
_0-0_1
  6
CONTINUOUS
 62
    7
 10
44.590622
 20
47.999901
 11
44.590622
 21
48.44006
  0
LINE
  8
_0-0_1
  6
CONTINUOUS
 62
    7
 10
41.864868
 20
48.411957
 11
41.864868
 21
48.78338
  0
LINE
  8
_0-0_1
  6
CONTINUOUS
 62
    7
 10
45.209412
 20
48.7729
 11
45.209412
 21
48.388931
  0
LINE
  8
_0-0_1
  6
CONTINUOUS
 62
    7
 10
44.218855
 20
49.815286
 11
44.218855
 21
49.559286
  0
LINE
  8
_0-0_1
  6
CONTINUOUS
 62
    7
 10
41.737259
 20
50.239763
 11
41.737259
 21
49.5168
  0
LINE
  8
_0-0_1
  6
CONTINUOUS
 62
    7
 10
45.409553
 20
50.239763
 11
45.409553
 21
50.110422
  0
LINE
  8
_0-0_1
  6
CONTINUOUS
 62
    7
 10
44.218855
 20
49.559286
 11
46.019631
 21
50.019069
  0
LINE
  8
_0-0_1
  6
CONTINUOUS
 62
    7
 10
45.9552
 20
50.266828
 11
44.218855
 21
49.815286
  0
LINE
  8
_0-0_1
  6
CONTINUOUS
 62
    7
 10
47.208036
 20
50.16764
 11
48.870462
 21
49.477746
  0
LINE
  8
_0-0_1
  6
CONTINUOUS
 62
    7
 10
50.07403
 20
42.367384
 11
50.07403
 21
47.845068
  0
LINE
  8
_0-0_1
  6
CONTINUOUS
 62
    7
 10
48.358429
 20
27.291
 11
48.358429
 21
48.408633
  0
LINE
  8
_0-0_1
  6
CONTINUOUS
 62
    7
 10
48.10243
 20
44.533829
 11
48.10243
 21
48.408633
  0
LINE
  8
_0-0_1
  6
CONTINUOUS
 62
    7
 10
46.132058
 20
48.895313
 11
47.821035
 21
49.334537
  0
LINE
  8
_0-0_1
  6
CONTINUOUS
 62
    7
 10
48.10243
 20
42.421076
 11
48.10243
 21
44.533829
  0
LINE
  8
_0-0_1
  6
CONTINUOUS
 62
    7
 10
48.10243
 20
34.346952
 11
48.10243
 21
42.421076
  0
LINE
  8
_0-0_1
  6
CONTINUOUS
 62
    7
 10
50.07403
 20
28.221468
 11
50.07403
 21
42.367384
  0
LINE
  8
_0-0_1
  6
CONTINUOUS
 62
    7
 10
38.384598
 20
30.545945
 11
38.384598
 21
46.737002
  0
LINE
  8
_0-0_1
  6
CONTINUOUS
 62
    7
 10
48.10243
 20
26.829001
 11
48.10243
 21
34.346952
  0
LINE
  8
_0-0_1
  6
CONTINUOUS
 62
    7
 10
40.155853
 20
31.296778
 11
40.155853
 21
46.141731
  0
LINE
  8
_0-0_1
  6
CONTINUOUS
 62
    7
 10
38.128598
 20
30.427827
 11
38.128598
 21
46.737002
  0
LINE
  8
_0-0_1
  6
CONTINUOUS
 62
    7
 10
36.454737
 20
29.537389
 11
45.803923
 21
33.851102
  0
LINE
  8
_0-0_1
  6
CONTINUOUS
 62
    7
 10
43.240943
 20
15.918809
 11
52.478197
 21
21.607357
  0
LINE
  8
_0-0_1
  6
CONTINUOUS
 62
    7
 10
51.470826
 20
58.975052
 11
51.470826
 21
58.524487
  0
LINE
  8
_0-0_1
  6
CONTINUOUS
 62
    7
 10
47.733913
 20
59.088368
 11
50.539621
 21
58.91277
  0
LINE
  8
_0-0_1
  6
CONTINUOUS
 62
    7
 10
46.967146
 20
54.652348
 11
45.911936
 21
52.539106
  0
LINE
  8
_0-0_1
  6
CONTINUOUS
 62
    7
 10
40.063817
 20
52.201115
 11
40.129355
 21
50.266572
  0
LINE
  8
_0-0_1
  6
CONTINUOUS
 62
    7
 10
51.470826
 20
57.862673
 11
51.470826
 21
54.352966
  0
LINE
  8
_0-0_1
  6
CONTINUOUS
 62
    7
 10
51.470826
 20
58.185623
 11
51.470826
 21
57.862673
  0
LINE
  8
_0-0_1
  6
CONTINUOUS
 62
    7
 10
51.470826
 20
58.524487
 11
51.470826
 21
58.185623
  0
LINE
  8
_0-0_1
  6
CONTINUOUS
 62
    7
 10
50.539621
 20
54.334332
 11
50.539621
 21
54.45303
  0
LINE
  8
_0-0_1
  6
CONTINUOUS
 62
    7
 10
46.944924
 20
50.341377
 11
47.061594
 21
53.785195
  0
LINE
  8
_0-0_1
  6
CONTINUOUS
 62
    7
 10
46.801559
 20
54.686981
 11
45.865395
 21
52.812149
  0
LINE
  8
_0-0_1
  6
CONTINUOUS
 62
    7
 10
46.801559
 20
54.686981
 11
47.09153
 21
54.668833
  0
LINE
  8
_0-0_1
  6
CONTINUOUS
 62
    7
 10
47.567442
 20
54.639047
 11
47.740834
 21
59.057301
  0
LINE
  8
_0-0_1
  6
CONTINUOUS
 62
    7
 10
39.355987
 20
59.057301
 11
39.660469
 21
52.365764
  0
LINE
  8
_0-0_1
  6
CONTINUOUS
 62
    7
 10
50.539621
 20
54.334332
 11
50.828722
 21
54.316238
  0
LINE
  8
_0-0_1
  6
CONTINUOUS
 62
    7
 10
50.939725
 20
54.42799
 11
51.470826
 21
54.352966
  0
LINE
  8
_0-0_1
  6
CONTINUOUS
 62
    7
 10
47.09153
 20
54.668833
 11
47.567442
 21
54.639047
  0
LINE
  8
_0-0_1
  6
CONTINUOUS
 62
    7
 10
47.567442
 20
54.639047
 11
50.539621
 21
54.45303
  0
LINE
  8
_0-0_1
  6
CONTINUOUS
 62
    7
 10
47.065142
 20
53.889921
 11
47.09153
 21
54.668833
  0
LINE
  8
_0-0_1
  6
CONTINUOUS
 62
    7
 10
47.061594
 20
53.785195
 11
47.065142
 21
53.889921
  0
LINE
  8
_0-0_1
  6
CONTINUOUS
 62
    7
 10
50.539621
 20
54.45303
 11
50.539621
 21
58.91277
  0
LINE
  8
_0-0_1
  6
CONTINUOUS
 62
    7
 10
50.939725
 20
57.937697
 11
50.939725
 21
54.42799
  0
LINE
  8
_0-0_1
  6
CONTINUOUS
 62
    7
 10
50.939725
 20
59.050076
 11
50.939725
 21
58.59951
  0
LINE
  8
_0-0_1
  6
CONTINUOUS
 62
    7
 10
50.939725
 20
58.59951
 11
50.939725
 21
58.260647
  0
LINE
  8
_0-0_1
  6
CONTINUOUS
 62
    7
 10
50.939725
 20
58.260647
 11
50.939725
 21
57.937697
  0
LINE
  8
_0-0_1
  6
CONTINUOUS
 62
    7
 10
50.939725
 20
59.050076
 11
51.470826
 21
58.975052
  0
ARC
  8
_0-0_1
  6
CONTINUOUS
 62
    7
 10
35.744081
 20
14.534411
 40
3.8852951
 50
291.69528
 51
338.82469
  0
ARC
  8
_0-0_1
  6
CONTINUOUS
 62
    7
 10
31.978339
 20
15.91799
 40
7.8968632
 50
339.3334
 51
10.601964
  0
ARC
  8
_0-0_1
  6
CONTINUOUS
 62
    7
 10
32.280795
 20
15.933035
 40
6.9954642
 50
335.92971
 51
3.9996342
  0
ARC
  8
_0-0_1
  6
CONTINUOUS
 62
    7
 10
35.612645
 20
14.514145
 40
3.3752239
 50
258.27908
 51
334.85329
  0
ARC
  8
_0-0_1
  6
CONTINUOUS
 62
    7
 10
36.147718
 20
17.766677
 40
6.6700372
 50
229.93538
 51
259.45444
  0
ARC
  8
_0-0_1
  6
CONTINUOUS
 62
    7
 10
39.812748
 20
22.634638
 40
12.758807
 50
200.0398
 51
231.41006
  0
ARC
  8
_0-0_1
  6
CONTINUOUS
 62
    7
 10
38.439643
 20
22.508788
 40
11.431141
 50
178.52475
 51
201.80588
  0
ARC
  8
_0-0_1
  6
CONTINUOUS
 62
    7
 10
36.918958
 20
22.551171
 40
10.304123
 50
177.18816
 51
192.54442
  0
ARC
  8
_0-0_1
  6
CONTINUOUS
 62
    7
 10
41.051286
 20
23.421139
 40
14.526839
 50
192.35381
 51
229.09253
  0
ARC
  8
_0-0_1
  6
CONTINUOUS
 62
    7
 10
36.894991
 20
18.832751
 40
8.3384942
 50
230.03077
 51
256.48874
  0
ARC
  8
_0-0_1
  6
CONTINUOUS
 62
    7
 10
35.716261
 20
14.320379
 40
3.6767598
 50
257.92026
 51
332.32274
  0
ARC
  8
_0-0_1
  6
CONTINUOUS
 62
    7
 10
32.933608
 20
15.624903
 40
6.7483512
 50
333.48819
 51
6.8056251
  0
ARC
  8
_0-0_1
  6
CONTINUOUS
 62
    7
 10
25.944529
 20
15.294826
 40
13.362231
 50
4.8345139
 51
50.985517
  0
ARC
  8
_0-0_1
  6
CONTINUOUS
 62
    7
 10
25.645269
 20
15.127456
 40
14.04915
 50
5.2975752
 51
39.238019
  0
ARC
  8
_0-0_1
  6
CONTINUOUS
 62
    7
 10
25.476074
 20
15.030625
 40
14.455024
 50
9.3172019
 51
48.188118
  0
ARC
  8
_0-0_1
  6
CONTINUOUS
 62
    7
 10
27.410782
 20
16.853794
 40
11.591826
 50
38.148925
 51
59.034123
  0
ARC
  8
_0-0_1
  6
CONTINUOUS
 62
    7
 10
29.089029
 20
18.91454
 40
9.1520704
 50
48.836184
 51
67.353979
  0
ARC
  8
_0-0_1
  6
CONTINUOUS
 62
    7
 10
29.986853
 20
20.26437
 40
6.9562612
 50
51.08782
 51
77.326454
  0
ARC
  8
_0-0_1
  6
CONTINUOUS
 62
    7
 10
30.143997
 20
21.225597
 40
6.4374949
 50
59.872989
 51
84.548096
  0
ARC
  8
_0-0_1
  6
CONTINUOUS
 62
    7
 10
32.632265
 20
22.893512
 40
6.0072402
 50
149.26686
 51
178.44383
  0
ARC
  8
_0-0_1
  6
CONTINUOUS
 62
    7
 10
32.869653
 20
22.628907
 40
5.8599518
 50
152.29742
 51
178.29674
  0
ARC
  8
_0-0_1
  6
CONTINUOUS
 62
    7
 10
30.6993
 20
23.715306
 40
3.4336566
 50
76.291304
 51
151.51164
  0
ARC
  8
_0-0_1
  6
CONTINUOUS
 62
    7
 10
30.849914
 20
23.592477
 40
4.1605178
 50
64.928752
 51
115.00324
  0
ARC
  8
_0-0_1
  6
CONTINUOUS
 62
    7
 10
30.473354
 20
24.120421
 40
3.5248706
 50
85.40685
 51
148.47535
  0
ARC
  8
_0-0_1
  6
CONTINUOUS
 62
    7
 10
34.242934
 20
19.648783
 40
8.7743043
 50
13.503809
 51
42.109276
  0
ARC
  8
_0-0_1
  6
CONTINUOUS
 62
    7
 10
40.156489
 20
21.091735
 40
2.6873815
 50
338.67121
 51
13.030785
  0
ARC
  8
_0-0_1
  6
CONTINUOUS
 62
    7
 10
42.189632
 20
20.315459
 40
0.5114074
 50
268.41532
 51
336.8351
  0
ARC
  8
_0-0_1
  6
CONTINUOUS
 62
    7
 10
33.185502
 20
19.566421
 40
11.5441
 50
358.59955
 51
41.281079
  0
ARC
  8
_0-0_1
  6
CONTINUOUS
 62
    7
 10
33.376988
 20
19.623619
 40
11.111305
 50
0.8226269
 51
39.51442
  0
ARC
  8
_0-0_1
  6
CONTINUOUS
 62
    7
 10
39.012811
 20
19.820694
 40
5.4744659
 50
328.20921
 51
359.607
  0
ARC
  8
_0-0_1
  6
CONTINUOUS
 62
    7
 10
39.306189
 20
19.582371
 40
5.4281566
 50
324.40259
 51
356.85202
  0
ARC
  8
_0-0_1
  6
CONTINUOUS
 62
    7
 10
41.824885
 20
17.744593
 40
2.3105645
 50
289.20161
 51
325.10313
  0
ARC
  8
_0-0_1
  6
CONTINUOUS
 62
    7
 10
41.510562
 20
18.830126
 40
3.4396116
 50
253.39305
 51
288.19896
  0
ARC
  8
_0-0_1
  6
CONTINUOUS
 62
    7
 10
41.288957
 20
18.552961
 40
2.8744995
 50
295.33238
 51
325.78527
  0
ARC
  8
_0-0_1
  6
CONTINUOUS
 62
    7
 10
41.384986
 20
18.967713
 40
3.2191465
 50
257.03909
 51
290.62376
  0
ARC
  8
_0-0_1
  6
CONTINUOUS
 62
    7
 10
35.16193
 20
21.160706
 40
8.7564239
 50
39.186612
 51
57.941356
  0
ARC
  8
_0-0_1
  6
CONTINUOUS
 62
    7
 10
35.651313
 20
21.868611
 40
8.1728625
 50
40.557389
 51
63.509192
  0
ARC
  8
_0-0_1
  6
CONTINUOUS
 62
    7
 10
37.233627
 20
24.442956
 40
4.8750885
 50
58.101171
 51
84.510243
  0
ARC
  8
_0-0_1
  6
CONTINUOUS
 62
    7
 10
37.055774
 20
22.259671
 40
4.9370893
 50
41.519815
 51
63.202677
  0
ARC
  8
_0-0_1
  6
CONTINUOUS
 62
    7
 10
38.704426
 20
25.33358
 40
1.4525596
 50
66.587807
 51
98.839036
  0
ARC
  8
_0-0_1
  6
CONTINUOUS
 62
    7
 10
38.568065
 20
26.293812
 40
0.4829487
 50
100.35858
 51
153.2222
  0
ARC
  8
_0-0_1
  6
CONTINUOUS
 62
    7
 10
37.320665
 20
25.138509
 40
4.5018025
 50
63.961364
 51
91.686961
  0
ARC
  8
_0-0_1
  6
CONTINUOUS
 62
    7
 10
37.149544
 20
27.204692
 40
2.4339745
 50
89.091468
 51
133.74684
  0
ARC
  8
_0-0_1
  6
CONTINUOUS
 62
    7
 10
37.882455
 20
26.183531
 40
3.6826919
 50
130.99746
 51
162.46749
  0
ARC
  8
_0-0_1
  6
CONTINUOUS
 62
    7
 10
37.433413
 20
26.552007
 40
2.7565993
 50
84.449998
 51
132.82978
  0
ARC
  8
_0-0_1
  6
CONTINUOUS
 62
    7
 10
37.981429
 20
26.032315
 40
3.51062
 50
133.62305
 51
159.81153
  0
ARC
  8
_0-0_1
  6
CONTINUOUS
 62
    7
 10
8.4266422
 20
30.375516
 40
35.365751
 50
331.50405
 51
343.31971
  0
ARC
  8
_0-0_1
  6
CONTINUOUS
 62
    7
 10
35.526132
 20
20.344963
 40
6.779188
 50
358.98141
 51
62.94512
  0
ARC
  8
_0-0_1
  6
CONTINUOUS
 62
    7
 10
29.15149
 20
-7.3228932
 40
35.007096
 50
74.325199
 51
85.359065
  0
ARC
  8
_0-0_1
  6
CONTINUOUS
 62
    7
 10
49.933079
 20
27.470768
 40
0.7640544
 50
47.77026
 51
135.72941
  0
ARC
  8
_0-0_1
  6
CONTINUOUS
 62
    7
 10
49.552943
 20
27.108751
 40
1.1057038
 50
36.794864
 51
42.980125
  0
ARC
  8
_0-0_1
  6
CONTINUOUS
 62
    7
 10
49.842289
 20
26.448218
 40
0.9173654
 50
226.99064
 51
241.22538
  0
ARC
  8
_0-0_1
  6
CONTINUOUS
 62
    7
 10
49.392487
 20
26.815441
 40
1.2901288
 50
179.39779
 51
226.24461
  0
ARC
  8
_0-0_1
  6
CONTINUOUS
 62
    7
 10
48.970989
 20
26.422577
 40
0.715613
 50
228.86766
 51
270.54276
  0
ARC
  8
_0-0_1
  6
CONTINUOUS
 62
    7
 10
49.370126
 20
26.59998
 40
0.9707219
 50
198.64062
 51
259.95832
  0
ARC
  8
_0-0_1
  6
CONTINUOUS
 62
    7
 10
49.972129
 20
26.929556
 40
1.6508451
 50
176.11163
 51
202.80454
  0
ARC
  8
_0-0_1
  6
CONTINUOUS
 62
    7
 10
49.82274
 20
26.973327
 40
1.499207
 50
137.75342
 51
177.39356
  0
ARC
  8
_0-0_1
  6
CONTINUOUS
 62
    7
 10
49.311596
 20
27.40389
 40
0.8317245
 50
91.828924
 51
136.03606
  0
ARC
  8
_0-0_1
  6
CONTINUOUS
 62
    7
 10
50.080306
 20
26.687003
 40
1.0722837
 50
188.19126
 51
229.83059
  0
ARC
  8
_0-0_1
  6
CONTINUOUS
 62
    7
 10
50.442161
 20
26.959633
 40
1.4854179
 50
135.31918
 51
196.64184
  0
ARC
  8
_0-0_1
  6
CONTINUOUS
 62
    7
 10
49.588576
 20
26.814241
 40
1.2934537
 50
304.53066
 51
349.93804
  0
ARC
  8
_0-0_1
  6
CONTINUOUS
 62
    7
 10
49.934568
 20
26.378235
 40
0.7391093
 50
240.90264
 51
301.59233
  0
ARC
  8
_0-0_1
  6
CONTINUOUS
 62
    7
 10
49.306084
 20
26.942429
 40
1.5958493
 50
347.1774
 51
35.113653
  0
ARC
  8
_0-0_1
  6
CONTINUOUS
 62
    7
 10
44.308689
 20
48.208573
 40
0.3647912
 50
39.388351
 51
73.17393
  0
ARC
  8
_0-0_1
  6
CONTINUOUS
 62
    7
 10
43.556919
 20
45.735722
 40
2.949389
 50
73.100582
 51
109.39586
  0
ARC
  8
_0-0_1
  6
CONTINUOUS
 62
    7
 10
42.610231
 20
48.381955
 40
0.1396707
 50
103.5751
 51
197.70028
  0
ARC
  8
_0-0_1
  6
CONTINUOUS
 62
    7
 10
42.795798
 20
49.554364
 40
1.5403638
 50
235.72287
 51
258.04753
  0
ARC
  8
_0-0_1
  6
CONTINUOUS
 62
    7
 10
42.028482
 20
48.410864
 40
0.1636175
 50
122.39616
 51
232.23174
  0
ARC
  8
_0-0_1
  6
CONTINUOUS
 62
    7
 10
42.746672
 20
47.407403
 40
1.3973826
 50
96.18547
 51
125.2178
  0
ARC
  8
_0-0_1
  6
CONTINUOUS
 62
    7
 10
43.536892
 20
43.386195
 40
5.4916395
 50
80.057135
 51
99.864121
  0
ARC
  8
_0-0_1
  6
CONTINUOUS
 62
    7
 10
44.249428
 20
47.187385
 40
1.625148
 50
57.412225
 51
81.66137
  0
ARC
  8
_0-0_1
  6
CONTINUOUS
 62
    7
 10
44.30201
 20
49.537005
 40
1.5186903
 50
281.181
 51
302.33524
  0
ARC
  8
_0-0_1
  6
CONTINUOUS
 62
    7
 10
45.038747
 20
48.408022
 40
0.1717289
 50
296.10683
 51
59.959099
  0
ARC
  8
_0-0_1
  6
CONTINUOUS
 62
    7
 10
43.789235
 20
53.271947
 40
5.3088453
 50
278.68217
 51
285.53682
  0
ARC
  8
_0-0_1
  6
CONTINUOUS
 62
    7
 10
44.730367
 20
50.151406
 40
2.0514693
 50
283.55678
 51
307.86126
  0
ARC
  8
_0-0_1
  6
CONTINUOUS
 62
    7
 10
45.728782
 20
48.84376
 40
0.406557
 50
309.88009
 51
7.2849544
  0
ARC
  8
_0-0_1
  6
CONTINUOUS
 62
    7
 10
44.71254
 20
83.076245
 40
35.556034
 50
264.64916
 51
266.44075
  0
ARC
  8
_0-0_1
  6
CONTINUOUS
 62
    7
 10
41.661487
 20
48.573461
 40
0.5921739
 50
117.13552
 51
164.96681
  0
ARC
  8
_0-0_1
  6
CONTINUOUS
 62
    7
 10
42.629618
 20
47.00324
 40
2.4354665
 50
102.30502
 51
120.55808
  0
ARC
  8
_0-0_1
  6
CONTINUOUS
 62
    7
 10
43.751619
 20
42.461751
 40
7.1128985
 50
86.233611
 51
103.33905
  0
ARC
  8
_0-0_1
  6
CONTINUOUS
 62
    7
 10
43.760114
 20
42.303439
 40
7.5258415
 50
86.505343
 51
99.415721
  0
ARC
  8
_0-0_1
  6
CONTINUOUS
 62
    7
 10
43.088264
 20
46.040092
 40
3.7299748
 50
98.624698
 51
116.06778
  0
ARC
  8
_0-0_1
  6
CONTINUOUS
 62
    7
 10
41.737473
 20
48.770558
 40
0.6838162
 50
114.93479
 51
161.1232
  0
ARC
  8
_0-0_1
  6
CONTINUOUS
 62
    7
 10
43.541437
 20
44.332636
 40
4.9027767
 50
74.583179
 51
105.87382
  0
ARC
  8
_0-0_1
  6
CONTINUOUS
 62
    7
 10
42.286405
 20
48.594679
 40
0.4618458
 50
100.72843
 51
155.88429
  0
ARC
  8
_0-0_1
  6
CONTINUOUS
 62
    7
 10
44.664631
 20
48.453993
 40
0.6312589
 50
30.344195
 51
73.417795
  0
ARC
  8
_0-0_1
  6
CONTINUOUS
 62
    7
 10
45.123374
 20
49.963322
 40
0.3978917
 50
44.008284
 51
80.714859
  0
ARC
  8
_0-0_1
  6
CONTINUOUS
 62
    7
 10
43.568106
 20
40.564091
 40
9.9249271
 50
80.608958
 51
93.700708
  0
ARC
  8
_0-0_1
  6
CONTINUOUS
 62
    7
 10
43.514171
 20
37.060638
 40
13.514522
 50
84.194087
 51
92.602508
  0
ARC
  8
_0-0_1
  6
CONTINUOUS
 62
    7
 10
44.73739
 20
48.243128
 40
2.2672772
 50
66.638224
 51
86.361187
  0
ARC
  8
_0-0_1
  6
CONTINUOUS
 62
    7
 10
45.591059
 20
50.254701
 40
0.0832845
 50
268.21425
 51
56.978272
  0
ARC
  8
_0-0_1
  6
CONTINUOUS
 62
    7
 10
46.329177
 20
49.579059
 40
0.9799353
 50
51.07113
 51
71.283774
  0
ARC
  8
_0-0_1
  6
CONTINUOUS
 62
    7
 10
45.274971
 20
46.543065
 40
4.1937298
 50
70.952259
 51
84.190007
  0
ARC
  8
_0-0_1
  6
CONTINUOUS
 62
    7
 10
43.603394
 20
34.359019
 40
16.489997
 50
82.697152
 51
91.86657
  0
ARC
  8
_0-0_1
  6
CONTINUOUS
 62
    7
 10
43.091245
 20
45.072618
 40
5.3981885
 50
91.738184
 51
103.06201
  0
ARC
  8
_0-0_1
  6
CONTINUOUS
 62
    7
 10
43.40962
 20
34.291945
 40
16.551883
 50
91.188582
 51
95.938091
  0
ARC
  8
_0-0_1
  6
CONTINUOUS
 62
    7
 10
43.207828
 20
42.681008
 40
7.8862029
 50
92.233253
 51
101.25046
  0
ARC
  8
_0-0_1
  6
CONTINUOUS
 62
    7
 10
42.170582
 20
51.994326
 40
1.9512798
 50
252.35791
 51
257.16929
  0
ARC
  8
_0-0_1
  6
CONTINUOUS
 62
    7
 10
41.649466
 20
50.480841
 40
0.3530832
 50
231.68733
 51
258.52236
  0
ARC
  8
_0-0_1
  6
CONTINUOUS
 62
    7
 10
41.829375
 20
49.659885
 40
0.77256
 50
101.9626
 51
120.72235
  0
ARC
  8
_0-0_1
  6
CONTINUOUS
 62
    7
 10
42.38632
 20
43.785409
 40
7.0035856
 50
95.646246
 51
105.93185
  0
ARC
  8
_0-0_1
  6
CONTINUOUS
 62
    7
 10
41.888828
 20
50.161431
 40
0.1706134
 50
95.922301
 51
152.66978
  0
ARC
  8
_0-0_1
  6
CONTINUOUS
 62
    7
 10
41.468527
 20
50.262678
 40
0.0700539
 50
118.88191
 51
237.19273
  0
ARC
  8
_0-0_1
  6
CONTINUOUS
 62
    7
 10
40.765258
 20
49.580575
 40
0.9865639
 50
107.78728
 51
125.46835
  0
ARC
  8
_0-0_1
  6
CONTINUOUS
 62
    7
 10
42.144243
 20
55.513526
 40
5.7393085
 50
252.71961
 51
265.93364
  0
ARC
  8
_0-0_1
  6
CONTINUOUS
 62
    7
 10
40.733772
 20
50.900107
 40
0.9154535
 50
233.44705
 51
251.24231
  0
ARC
  8
_0-0_1
  6
CONTINUOUS
 62
    7
 10
40.25773
 20
50.273096
 40
0.1285711
 50
120.33127
 51
237.45316
  0
ARC
  8
_0-0_1
  6
CONTINUOUS
 62
    7
 10
40.207834
 20
52.195597
 40
0.1441232
 50
116.63848
 51
177.80579
  0
ARC
  8
_0-0_1
  6
CONTINUOUS
 62
    7
 10
41.220742
 20
50.204296
 40
2.3782341
 50
99.054525
 51
116.94137
  0
ARC
  8
_0-0_1
  6
CONTINUOUS
 62
    7
 10
41.463543
 20
48.157505
 40
4.7029854
 50
98.872236
 51
108.3706
  0
ARC
  8
_0-0_1
  6
CONTINUOUS
 62
    7
 10
40.139558
 20
52.023626
 40
0.6177934
 50
104.83889
 51
137.85215
  0
ARC
  8
_0-0_1
  6
CONTINUOUS
 62
    7
 10
40.179016
 20
52.735411
 40
0.6642675
 50
220.57827
 51
260.37073
  0
ARC
  8
_0-0_1
  6
CONTINUOUS
 62
    7
 10
39.80037
 20
52.364382
 40
0.1399079
 50
148.1586
 51
205.87993
  0
ARC
  8
_0-0_1
  6
CONTINUOUS
 62
    7
 10
43.330015
 20
34.5659
 40
18.421557
 50
82.089205
 51
98.088065
  0
ARC
  8
_0-0_1
  6
CONTINUOUS
 62
    7
 10
43.336014
 20
36.680258
 40
16.066686
 50
80.774127
 51
98.913937
  0
ARC
  8
_0-0_1
  6
CONTINUOUS
 62
    7
 10
43.513493
 20
41.835077
 40
18.020444
 50
79.051072
 51
99.936238
  0
ARC
  8
_0-0_1
  6
CONTINUOUS
 62
    7
 10
40.99477
 20
56.498352
 40
3.1428872
 50
100.83385
 51
118.95881
  0
ARC
  8
_0-0_1
  6
CONTINUOUS
 62
    7
 10
46.55089
 20
57.651989
 40
1.9146712
 50
54.351801
 51
78.390886
  0
ARC
  8
_0-0_1
  6
CONTINUOUS
 62
    7
 10
47.453961
 20
59.009698
 40
0.2907959
 50
9.4217091
 51
42.960122
  0
ARC
  8
_0-0_1
  6
CONTINUOUS
 62
    7
 10
39.66934
 20
58.996598
 40
0.319178
 50
127.95212
 51
169.03638
  0
ARC
  8
_0-0_1
  6
CONTINUOUS
 62
    7
 10
49.93111
 20
36.928486
 40
7.5540547
 50
306.90709
 51
88.494764
  0
ARC
  8
_0-0_1
  6
CONTINUOUS
 62
    7
 10
48.412938
 20
27.332318
 40
7.0215029
 50
305.37832
 51
76.315685
  0
ARC
  8
_0-0_1
  6
CONTINUOUS
 62
    7
 10
49.93111
 20
36.928486
 40
5.4407748
 50
306.05856
 51
88.494764
  0
ARC
  8
_0-0_1
  6
CONTINUOUS
 62
    7
 10
48.412938
 20
27.332318
 40
7.0215029
 50
92.534587
 51
111.81278
  0
ARC
  8
_0-0_1
  6
CONTINUOUS
 62
    7
 10
48.224492
 20
48.16961
 40
3.6378299
 50
182.67388
 51
268.07716
  0
ARC
  8
_0-0_1
  6
CONTINUOUS
 62
    7
 10
48.224492
 20
48.16961
 40
5.7498299
 50
178.30694
 51
268.78358
  0
ARC
  8
_0-0_1
  6
CONTINUOUS
 62
    7
 10
47.204968
 20
69.481344
 40
15.509735
 50
282.41575
 51
283.9338
  0
ARC
  8
_0-0_1
  6
CONTINUOUS
 62
    7
 10
47.285729
 20
69.449217
 40
15.665626
 50
269.18021
 51
285.49483
  0
ARC
  8
_0-0_1
  6
CONTINUOUS
 62
    7
 10
47.204968
 20
69.481344
 40
15.59205
 50
269.48617
 51
283.43902
  0
ARC
  8
_0-0_1
  6
CONTINUOUS
 62
    7
 10
47.204968
 20
74.103431
 40
15.509735
 50
282.41575
 51
283.9338
  0
ARC
  8
_0-0_1
  6
CONTINUOUS
 62
    7
 10
48.159979
 20
47.694038
 40
1.92
 50
355.48838
 51
68.281721
  0
ARC
  8
_0-0_1
  6
CONTINUOUS
 62
    7
 10
41.817738
 20
46.065071
 40
1.6639999
 50
104.57706
 51
177.11072
  0
ARC
  8
_0-0_1
  6
CONTINUOUS
 62
    7
 10
46.43843
 20
48.408633
 40
1.9199999
 50
0
 51
104.57706
  0
ARC
  8
_0-0_1
  6
CONTINUOUS
 62
    7
 10
46.43843
 20
48.408633
 40
1.6639999
 50
0
 51
104.57706
  0
ARC
  8
_0-0_1
  6
CONTINUOUS
 62
    7
 10
40.048598
 20
46.737002
 40
1.9199998
 50
104.57706
 51
180
  0
ARC
  8
_0-0_1
  6
CONTINUOUS
 62
    7
 10
40.048598
 20
46.737002
 40
1.6639999
 50
104.57706
 51
180
  0
TEXT
  8
_0-0_1
 62
    7
 10
30.070704
 20
-0.4555216
 40
3
 41
0.9
 50
0
  1
YS1311
  0
ENDSEC
  0
EOF
