  0
SECTION
  2
HEADER
  9
$ACADVER
  1
AC1009
  9
$INSBASE
 10
0
 20
0
 30
0
  9
$EXTMIN
 10
0
 20
0
  9
$EXTMAX
 10
84.1
 20
59.4
  9
$LIMMIN
 10
0
 20
0
  9
$LIMMAX
 10
84.1
 20
59.4
  9
$LTSCALE
 40
0.1
  0
ENDSEC
  0
SECTION
  2
TABLES
  0
TABLE
  2
LTYPE
 70
     9
  0
LTYPE
  2
CONTINUOUS
 70
    64
  3
実線
 72
    65
 73
     0
 40
0.0
  0
LTYPE
  2
DASHED1
 70
    64
  3
--  --  --  --  --  --  --  --  
 72
    65
 73
     2
 40
2.5
 49
1.25
 49
-1.25
  0
LTYPE
  2
DASHED2
 70
    64
  3
----    ----    ----    ----    
 72
    65
 73
     2
 40
5.0
 49
2.5
 49
-2.5
  0
LTYPE
  2
DASHED3
 70
    64
  3
------  ------  ------  ------  
 72
    65
 73
     2
 40
5.0
 49
3.75
 49
-1.25
  0
LTYPE
  2
CENTER1
 70
    64
  3
----- - ----- - ----- - ----- - 
 72
    65
 73
     4
 40
10.0
 49
6.25
 49
-1.25
 49
1.25
 49
-1.25
  0
LTYPE
  2
CENTER2
 70
    64
  3
----------  --  ----------  --  
 72
    65
 73
     4
 40
20.0
 49
12.5
 49
-2.5
 49
2.5
 49
-2.5
  0
LTYPE
  2
PHANTOM1
 70
    64
  3
--- - - --- - - --- - - --- - - 
 72
    65
 73
     6
 40
10.0
 49
3.25
 49
-1.25
 49
1.25
 49
-1.25
 49
1.25
 49
-1.25
  0
LTYPE
  2
PHANTOM2
 70
    64
  3
--------  -  -  --------  -  -  
 72
    65
 73
     6
 40
20.0
 49
10.0
 49
-2.5
 49
1.25
 49
-2.5
 49
1.25
 49
-2.5
  0
LTYPE
  2
DOT
 70
    64
  3
-   -   -   -   -   -   -   -   
 72
    65
 73
     2
 40
2.5
 49
0.625
 49
-1.875
  0
LTYPE
  2
DUMMY
 70
    64
  3
ダミー
 72
    65
 73
     0
 40
0.0
  0
LTYPE
  2
RAND1
 70
    64
  3
----- - ----- - ----- - ----- - 
 72
    65
 73
     4
 40
10.0
 49
6.25
 49
-1.25
 49
1.25
 49
-1.25
  0
LTYPE
  2
RAND2
 70
    64
  3
----------  --  ----------  --  
 72
    65
 73
     4
 40
20.0
 49
12.5
 49
-2.5
 49
2.5
 49
-2.5
  0
LTYPE
  2
RAND3
 70
    64
  3
--- - - --- - - --- - - --- - - 
 72
    65
 73
     6
 40
10.0
 49
3.25
 49
-1.25
 49
1.25
 49
-1.25
 49
1.25
 49
-1.25
  0
LTYPE
  2
RAND4
 70
    64
  3
--------  -  -  --------  -  -  
 72
    65
 73
     6
 40
20.0
 49
10.0
 49
-2.5
 49
1.25
 49
-2.5
 49
1.25
 49
-2.5
  0
LTYPE
  2
RAND5
 70
    64
  3
----- - ----- - ----- - ----- - 
 72
    65
 73
     4
 40
10.0
 49
6.25
 49
-1.25
 49
1.25
 49
-1.25
  0
LTYPE
  2
LONG1
 70
    64
  3
----------  --  ----------  --  
 72
    65
 73
     4
 40
20.0
 49
12.5
 49
-2.5
 49
2.5
 49
-2.5
  0
LTYPE
  2
LONG2
 70
    64
  3
--- - - --- - - --- - - --- - - 
 72
    65
 73
     6
 40
10.0
 49
3.25
 49
-1.25
 49
1.25
 49
-1.25
 49
1.25
 49
-1.25
  0
LTYPE
  2
LONG3
 70
    64
  3
--------  -  -  --------  -  -  
 72
    65
 73
     6
 40
20.0
 49
10.0
 49
-2.5
 49
1.25
 49
-2.5
 49
1.25
 49
-2.5
  0
LTYPE
  2
LONG4
 70
    64
  3
----- - ----- - ----- - ----- - 
 72
    65
 73
     4
 40
10.0
 49
6.25
 49
-1.25
 49
1.25
 49
-1.25
  0
LTYPE
  2
LONG5
 70
    64
  3
----------  --  ----------  --  
 72
    65
 73
     4
 40
20.0
 49
12.5
 49
-2.5
 49
2.5
 49
-2.5
  0
ENDTAB
  0
TABLE
  2
STYLE
  5
3
100
AcDbSymbolTable
 70
     1
  0
STYLE
  5
10
100
AcDbSymbolTableRecord
100
AcDbTextStyleTableRecord
  2
STANDARD
 70
     0
 40
0.0
 41
1.0
 50
0.0
 71
     0
 42
0.2
  3
txt
  4
bigfont.shx
  0
ENDTAB
  0
TABLE
  2
LAYER
 70
    2
  0
LAYER
  2
_0-0_1
 70
   64
 62
    7
  6
CONTINUOUS
  0
LAYER
  2
ADD_LINE
 70
   64
 62
    7
  6
CONTINUOUS
  0
ENDTAB
  0
ENDSEC
  0
SECTION
  2
BLOCKS
  0
ENDSEC
  0
SECTION
  2
ENTITIES
  0
LINE
  8
_0-0_1
  6
CONTINUOUS
 62
    7
 10
43.383801
 20
13.07002
 11
36.461294
 21
13.070086
  0
LINE
  8
_0-0_1
  6
CONTINUOUS
 62
    7
 10
42.459621
 20
57.220085
 11
36.524422
 21
57.220936
  0
ARC
  8
_0-0_1
  6
CONTINUOUS
 62
    7
 10
36.527529
 20
40.328686
 40
16.882204
 50
64.175081
 51
112.34505
  0
ARC
  8
_0-0_1
  6
CONTINUOUS
 62
    7
 10
33.939792
 20
36.486063
 40
21.478338
 50
17.935487
 51
62.426553
  0
ARC
  8
_0-0_1
  6
CONTINUOUS
 62
    7
 10
30.632968
 20
35.147306
 40
25.038031
 50
337.65485
 51
18.519886
  0
ARC
  8
_0-0_1
  6
CONTINUOUS
 62
    7
 10
34.744333
 20
33.029967
 40
20.434229
 50
299.70418
 51
338.76323
  0
ARC
  8
_0-0_1
  6
CONTINUOUS
 62
    7
 10
36.5271
 20
29.97022
 40
16.893177
 50
242.81117
 51
299.59452
  0
ARC
  8
_0-0_1
  6
CONTINUOUS
 62
    7
 10
39.155863
 20
33.850673
 40
21.553421
 50
194.57344
 51
241.30845
  0
ARC
  8
_0-0_1
  6
CONTINUOUS
 62
    7
 10
41.950475
 20
35.167641
 40
24.596133
 50
148.48304
 51
195.90465
  0
ARC
  8
_0-0_1
  6
CONTINUOUS
 62
    7
 10
37.484192
 20
38.223655
 40
19.193063
 50
112.59739
 51
149.29044
  0
ARC
  8
_0-0_1
  6
CONTINUOUS
 62
    7
 10
43.266102
 20
39.862046
 40
17.376763
 50
75.134697
 51
92.660135
  0
ARC
  8
_0-0_1
  6
CONTINUOUS
 62
    7
 10
42.625565
 20
38.530419
 40
18.830196
 50
46.234902
 51
74.290382
  0
ARC
  8
_0-0_1
  6
CONTINUOUS
 62
    7
 10
38.727726
 20
35.354306
 40
23.82809
 50
1.7779321
 51
44.748677
  0
ARC
  8
_0-0_1
  6
CONTINUOUS
 62
    7
 10
37.952528
 20
35.055242
 40
24.613729
 50
333.26393
 51
2.4177846
  0
ARC
  8
_0-0_1
  6
CONTINUOUS
 62
    7
 10
41.794321
 20
32.807932
 40
20.173571
 50
302.69666
 51
334.05549
  0
ARC
  8
_0-0_1
  6
CONTINUOUS
 62
    7
 10
43.383703
 20
30.140979
 40
17.070959
 50
270.00033
 51
303.0428
  0
ARC
  8
_0-0_1
  6
CONTINUOUS
 62
    7
 10
49.170154
 20
40.340093
 40
15.216277
 50
51.178942
 51
80.225945
  0
ARC
  8
_0-0_1
  6
CONTINUOUS
 62
    7
 10
44.315665
 20
35.881627
 40
21.755543
 50
9.7075579
 51
48.57814
  0
ARC
  8
_0-0_1
  6
CONTINUOUS
 62
    7
 10
41.392803
 20
35.149047
 40
24.761141
 50
336.92504
 51
10.238011
  0
ARC
  8
_0-0_1
  6
CONTINUOUS
 62
    7
 10
46.841259
 20
32.620735
 40
18.758635
 50
309.93693
 51
337.50718
  0
ARC
  8
_0-0_1
  6
CONTINUOUS
 62
    7
 10
49.7134
 20
29.085187
 40
14.204154
 50
275.95272
 51
310.20882
  0
ARC
  8
_0-0_1
  6
CONTINUOUS
 62
    7
 10
50.986377
 20
28.010364
 40
12.941358
 50
276.75851
 51
310.8248
  0
ARC
  8
_0-0_1
  6
CONTINUOUS
 62
    7
 10
44.698673
 20
34.543578
 40
22.001085
 50
312.09291
 51
356.30074
  0
ARC
  8
_0-0_1
  6
CONTINUOUS
 62
    7
 10
42.497522
 20
35.231359
 40
24.248135
 50
355.01443
 51
24.655991
  0
ARC
  8
_0-0_1
  6
CONTINUOUS
 62
    7
 10
47.354255
 20
37.629538
 40
18.834375
 50
24.189162
 51
51.018044
  0
ARC
  8
_0-0_1
  6
CONTINUOUS
 62
    7
 10
50.278569
 20
41.188194
 40
14.228502
 50
51.157109
 51
82.455973
  0
ARC
  8
_0-0_1
  6
CONTINUOUS
 62
    7
 10
51.165531
 20
48.592437
 40
6.7725365
 50
81.670833
 51
90.862644
  0
TEXT
  8
_0-0_1
 62
    7
 10
37.125195
 20
0.9919921
 40
3
 41
0.9
 50
0
  1
YW1301
  0
ENDSEC
  0
EOF
