  0
SECTION
  2
HEADER
  9
$ACADVER
  1
AC1009
  9
$INSBASE
 10
0
 20
0
 30
0
  9
$EXTMIN
 10
0
 20
0
  9
$EXTMAX
 10
59.400000000000006
 20
42
  9
$LIMMIN
 10
0
 20
0
  9
$LIMMAX
 10
59.400000000000006
 20
42
  9
$LTSCALE
 40
0.1
  0
ENDSEC
  0
SECTION
  2
TABLES
  0
TABLE
  2
LTYPE
 70
     9
  0
LTYPE
  2
CONTINUOUS
 70
    64
  3
Ä└É³
 72
    65
 73
     0
 40
0.0
  0
LTYPE
  2
DASHED1
 70
    64
  3
--  --  --  --  --  --  --  --  
 72
    65
 73
     2
 40
2.5
 49
1.25
 49
-1.25
  0
LTYPE
  2
DASHED2
 70
    64
  3
----    ----    ----    ----    
 72
    65
 73
     2
 40
5.0
 49
2.5
 49
-2.5
  0
LTYPE
  2
DASHED3
 70
    64
  3
------  ------  ------  ------  
 72
    65
 73
     2
 40
5.0
 49
3.75
 49
-1.25
  0
LTYPE
  2
CENTER1
 70
    64
  3
----- - ----- - ----- - ----- - 
 72
    65
 73
     4
 40
10.0
 49
6.25
 49
-1.25
 49
1.25
 49
-1.25
  0
LTYPE
  2
CENTER2
 70
    64
  3
----------  --  ----------  --  
 72
    65
 73
     4
 40
20.0
 49
12.5
 49
-2.5
 49
2.5
 49
-2.5
  0
LTYPE
  2
PHANTOM1
 70
    64
  3
--- - - --- - - --- - - --- - - 
 72
    65
 73
     6
 40
10.0
 49
3.25
 49
-1.25
 49
1.25
 49
-1.25
 49
1.25
 49
-1.25
  0
LTYPE
  2
PHANTOM2
 70
    64
  3
--------  -  -  --------  -  -  
 72
    65
 73
     6
 40
20.0
 49
10.0
 49
-2.5
 49
1.25
 49
-2.5
 49
1.25
 49
-2.5
  0
LTYPE
  2
DOT
 70
    64
  3
-   -   -   -   -   -   -   -   
 72
    65
 73
     2
 40
2.5
 49
0.625
 49
-1.875
  0
LTYPE
  2
DUMMY
 70
    64
  3
â_â~ü[
 72
    65
 73
     0
 40
0.0
  0
LTYPE
  2
RAND1
 70
    64
  3
âëâôâ_âÇÉ³1
 72
    65
 73
     4
 40
10.0
 49
1.0
 49
-2.0
 49
3.0
 49
-4.0
  0
LTYPE
  2
RAND2
 70
    64
  3
âëâôâ_âÇÉ³2
 72
    65
 73
     4
 40
14.0
 49
2.0
 49
-3.0
 49
4.0
 49
-5.0
  0
LTYPE
  2
RAND3
 70
    64
  3
âëâôâ_âÇÉ³3
 72
    65
 73
     4
 40
18.0
 49
3.0
 49
-4.0
 49
5.0
 49
-6.0
  0
LTYPE
  2
RAND4
 70
    64
  3
âëâôâ_âÇÉ³4
 72
    65
 73
     4
 40
22.0
 49
4.0
 49
-5.0
 49
6.0
 49
-7.0
  0
LTYPE
  2
RAND5
 70
    64
  3
âëâôâ_âÇÉ³5
 72
    65
 73
     4
 40
26.0
 49
5.0
 49
-6.0
 49
7.0
 49
-8.0
  0
LTYPE
  2
LONG1
 70
    64
  3
----------  --  ----------  --  
 72
    65
 73
     4
 40
40.0
 49
32.5
 49
-2.5
 49
2.5
 49
-2.5
  0
LTYPE
  2
LONG2
 70
    64
  3
--------  -  -  --------  -  -  
 72
    65
 73
     6
 40
40.0
 49
30.0
 49
-2.5
 49
1.25
 49
-2.5
 49
1.25
 49
-2.5
  0
LTYPE
  2
LONG3
 70
    64
  3
+++++++++++++++..+++++++++++++++
 72
    65
 73
     2
 40
40.0
 49
37.5
 49
-2.5
  0
LTYPE
  2
LONG4
 70
    64
  3
+++++++++++++++..+++++++++++++++
 72
    65
 73
     2
 40
80.0
 49
75.0
 49
-5.0
  0
LTYPE
  2
LONG5
 70
    64
  3
----------  --  ----------  --  
 72
    65
 73
     4
 40
60.0
 49
37.5
 49
-7.5
 49
7.5
 49
-7.5
  0
LTYPE
  2
dashed
 70
   64
  3
-------   -------------   ------
 72
   65
 73
    2
 40
7.5
 49
6
 49
-1.5
  0
LTYPE
  2
dashed_spaced
 70
   64
  3
----        --------        ----
 72
   65
 73
    2
 40
12
 49
6
 49
-6
  0
LTYPE
  2
long_dashed_dotted
 70
   64
  3
------------- --- --------------
 72
   65
 73
    4
 40
15.25
 49
12
 49
-1.5
 49
0.25
 49
-1.5
  0
LTYPE
  2
long_dashed_double-dotted
 70
   64
  3
----------- --- --- ------------
 72
   65
 73
    6
 40
17
 49
12
 49
-1.5
 49
0.25
 49
-1.5
 49
0.25
 49
-1.5
  0
LTYPE
  2
long_dashed_triplicate-dotted
 70
   64
  3
--------- --- --- --- ----------
 72
   65
 73
    8
 40
18.75
 49
12
 49
-1.5
 49
0.25
 49
-1.5
 49
0.25
 49
-1.5
 49
0.25
 49
-1.5
  0
LTYPE
  2
dotted
 70
   64
  3
   -       -       -       -    
 72
   65
 73
    2
 40
1.75
 49
0.25
 49
-1.5
  0
LTYPE
  2
chain
 70
   64
  3
-------------- -- --------------
 72
   65
 73
    4
 40
18.5
 49
12
 49
-1.5
 49
3.5
 49
-1.5
  0
LTYPE
  2
chain_double_dash
 70
   64
  3
------------ -- -- -------------
 72
   65
 73
    6
 40
23.5
 49
12
 49
-1.5
 49
3.5
 49
-1.5
 49
3.5
 49
-1.5
  0
LTYPE
  2
dashed_dotted
 70
   64
  3
-----------     -     ----------
 72
   65
 73
    4
 40
9.25
 49
6
 49
-1.5
 49
0.25
 49
-1.5
  0
LTYPE
  2
double-dashed_dotted
 70
   64
  3
------   -----------   -   -----
 72
   65
 73
    6
 40
16.75
 49
6
 49
-1.5
 49
6
 49
-1.5
 49
0.25
 49
-1.5
  0
LTYPE
  2
dashed_double-dotted
 70
   64
  3
---------    -    -    ---------
 72
   65
 73
    6
 40
11
 49
6
 49
-1.5
 49
0.25
 49
-1.5
 49
0.25
 49
-1.5
  0
LTYPE
  2
double-dashed_double-dotted
 70
   64
  3
-----   ---------   -   -   ----
 72
   65
 73
    8
 40
18.5
 49
6
 49
-1.5
 49
6
 49
-1.5
 49
0.25
 49
-1.5
 49
0.25
 49
-1.5
  0
LTYPE
  2
dashed_triplicate-dotted
 70
   64
  3
-------    -    -    -    ------
 72
   65
 73
    8
 40
12.75
 49
6
 49
-1.5
 49
0.25
 49
-1.5
 49
0.25
 49
-1.5
 49
0.25
 49
-1.5
  0
LTYPE
  2
double-dashed_triplicate-dotted
 70
   64
  3
-----  ---------  -  -  -  -----
 72
   65
 73
   10
 40
20.25
 49
6
 49
-1.5
 49
6
 49
-1.5
 49
0.25
 49
-1.5
 49
0.25
 49
-1.5
 49
0.25
 49
-1.5
  0
LTYPE
  2
undefined
 70
   64
  3
--------------------------------
 72
   65
 73
    0
 40
0
  0
ENDTAB
  0
TABLE
  2
STYLE
  5
3
100
AcDbSymbolTable
 70
     1
  0
STYLE
  5
10
100
AcDbSymbolTableRecord
100
AcDbTextStyleTableRecord
  2
STANDARD
 70
     0
 40
0.0
 41
1.0
 50
0.0
 71
     0
 42
0.2
  3
txt
  4
bigfont.shx
  0
STYLE
  5
26
100
AcDbSymbolTableRecord
100
AcDbTextStyleTableRecord
  2
TATEGAKI
 70
    68
 40
0.0
 41
1.0
 50
0.0
 71
     0
 42
1.0
  3
txt
  4
bigfont.shx
  0
ENDTAB
  0
TABLE
  2
LAYER
 70
    2
  0
LAYER
  2
_0-2____C_ä___1
 70
   64
 62
    7
  6
CONTINUOUS
  0
LAYER
  2
ADD_LINE
 70
   64
 62
    7
  6
CONTINUOUS
  0
ENDTAB
  0
ENDSEC
  0
SECTION
  2
BLOCKS
  0
ENDSEC
  0
SECTION
  2
ENTITIES
  0
LINE
  8
_0-2____C_ä___1
  6
CONTINUOUS
 62
    7
 10
30.732996
 20
24.254457000000002
 11
30.709539000000003
 21
24.249560000000002
  0
LINE
  8
_0-2____C_ä___1
  6
CONTINUOUS
 62
    7
 10
30.709539000000003
 20
24.249560000000002
 11
30.643011000000001
 21
24.231559000000001
  0
LINE
  8
_0-2____C_ä___1
  6
CONTINUOUS
 62
    7
 10
30.643011000000001
 20
24.231559000000001
 11
30.539178
 21
24.195498000000001
  0
LINE
  8
_0-2____C_ä___1
  6
CONTINUOUS
 62
    7
 10
30.539178
 20
24.195498000000001
 11
30.403805000000002
 21
24.136415000000003
  0
LINE
  8
_0-2____C_ä___1
  6
CONTINUOUS
 62
    7
 10
30.403805000000002
 20
24.136415000000003
 11
30.242657000000005
 21
24.049351000000001
  0
LINE
  8
_0-2____C_ä___1
  6
CONTINUOUS
 62
    7
 10
30.242657000000005
 20
24.049351000000001
 11
30.061498999999998
 21
23.929346000000002
  0
LINE
  8
_0-2____C_ä___1
  6
CONTINUOUS
 62
    7
 10
30.061498999999998
 20
23.929346000000002
 11
29.866096999999996
 21
23.771441000000003
  0
LINE
  8
_0-2____C_ä___1
  6
CONTINUOUS
 62
    7
 10
29.866096999999996
 20
23.771441000000003
 11
29.662216000000001
 21
23.570677
  0
LINE
  8
_0-2____C_ä___1
  6
CONTINUOUS
 62
    7
 10
29.662216000000001
 20
23.570677
 11
29.455621000000004
 21
23.322093000000002
  0
LINE
  8
_0-2____C_ä___1
  6
CONTINUOUS
 62
    7
 10
29.455621000000004
 20
23.322093000000002
 11
29.252077
 21
23.020731000000001
  0
LINE
  8
_0-2____C_ä___1
  6
CONTINUOUS
 62
    7
 10
29.252077
 20
23.020731000000001
 11
29.057350000000003
 21
22.661630000000002
  0
LINE
  8
_0-2____C_ä___1
  6
CONTINUOUS
 62
    7
 10
29.057350000000003
 20
22.661630000000002
 11
28.877205
 21
22.239831000000002
  0
LINE
  8
_0-2____C_ä___1
  6
CONTINUOUS
 62
    7
 10
28.877205
 20
22.239831000000002
 11
28.870859000000003
 21
22.128602000000001
  0
LINE
  8
_0-2____C_ä___1
  6
CONTINUOUS
 62
    7
 10
28.870859000000003
 20
22.128602000000001
 11
28.956758000000004
 21
21.887155000000003
  0
LINE
  8
_0-2____C_ä___1
  6
CONTINUOUS
 62
    7
 10
28.956758000000004
 20
21.887155000000003
 11
29.292304999999999
 21
21.653852000000001
  0
LINE
  8
_0-2____C_ä___1
  6
CONTINUOUS
 62
    7
 10
29.292304999999999
 20
21.653852000000001
 11
29.323854000000001
 21
21.655906999999999
  0
LINE
  8
_0-2____C_ä___1
  6
CONTINUOUS
 62
    7
 10
29.323854000000001
 20
21.655906999999999
 11
29.41292
 21
21.664229000000002
  0
LINE
  8
_0-2____C_ä___1
  6
CONTINUOUS
 62
    7
 10
29.41292
 20
21.664229000000002
 11
29.551134000000005
 21
21.682052000000002
  0
LINE
  8
_0-2____C_ä___1
  6
CONTINUOUS
 62
    7
 10
29.551134000000005
 20
21.682052000000002
 11
29.730127
 21
21.712613000000001
  0
LINE
  8
_0-2____C_ä___1
  6
CONTINUOUS
 62
    7
 10
29.730127
 20
21.712613000000001
 11
29.941529000000003
 21
21.759145000000004
  0
LINE
  8
_0-2____C_ä___1
  6
CONTINUOUS
 62
    7
 10
29.941529000000003
 20
21.759145000000004
 11
30.176970000000001
 21
21.824885000000002
  0
LINE
  8
_0-2____C_ä___1
  6
CONTINUOUS
 62
    7
 10
30.176970000000001
 20
21.824885000000002
 11
30.428082000000003
 21
21.913067999999999
  0
LINE
  8
_0-2____C_ä___1
  6
CONTINUOUS
 62
    7
 10
30.428082000000003
 20
21.913067999999999
 11
30.686493000000002
 21
22.026928999999999
  0
LINE
  8
_0-2____C_ä___1
  6
CONTINUOUS
 62
    7
 10
30.686493000000002
 20
22.026928999999999
 11
30.943835000000004
 21
22.169703000000002
  0
LINE
  8
_0-2____C_ä___1
  6
CONTINUOUS
 62
    7
 10
30.943835000000004
 20
22.169703000000002
 11
31.191739000000002
 21
22.344624000000003
  0
LINE
  8
_0-2____C_ä___1
  6
CONTINUOUS
 62
    7
 10
31.191739000000002
 20
22.344624000000003
 11
31.421834000000004
 21
22.554930000000002
  0
LINE
  8
_0-2____C_ä___1
  6
CONTINUOUS
 62
    7
 10
31.421834000000004
 20
22.554930000000002
 11
31.625751000000005
 21
22.803854000000001
  0
LINE
  8
_0-2____C_ä___1
  6
CONTINUOUS
 62
    7
 10
31.625751000000005
 20
22.803854000000001
 11
31.795119999999997
 21
23.094631000000003
  0
LINE
  8
_0-2____C_ä___1
  6
CONTINUOUS
 62
    7
 10
29.666235999999998
 20
23.574844000000002
 11
29.648914000000005
 21
23.493261
  0
LINE
  8
_0-2____C_ä___1
  6
CONTINUOUS
 62
    7
 10
29.648914000000005
 20
23.493261
 11
29.642813000000004
 21
23.275546000000002
  0
LINE
  8
_0-2____C_ä___1
  6
CONTINUOUS
 62
    7
 10
29.642813000000004
 20
23.275546000000002
 11
29.716726000000001
 21
22.962248000000002
  0
LINE
  8
_0-2____C_ä___1
  6
CONTINUOUS
 62
    7
 10
29.716726000000001
 20
22.962248000000002
 11
29.939448999999996
 21
22.593919000000003
  0
LINE
  8
_0-2____C_ä___1
  6
CONTINUOUS
 62
    7
 10
29.939448999999996
 20
22.593919000000003
 11
30.155334
 21
22.379741000000003
  0
LINE
  8
_0-2____C_ä___1
  6
CONTINUOUS
 62
    7
 10
30.155334
 20
22.379741000000003
 11
30.379998000000001
 21
22.231755000000003
  0
LINE
  8
_0-2____C_ä___1
  6
CONTINUOUS
 62
    7
 10
30.379998000000001
 20
22.231755000000003
 11
30.599632
 21
22.149999000000001
  0
LINE
  8
_0-2____C_ä___1
  6
CONTINUOUS
 62
    7
 10
30.599632
 20
22.149999000000001
 11
30.800426000000002
 21
22.134511000000003
  0
LINE
  8
_0-2____C_ä___1
  6
CONTINUOUS
 62
    7
 10
30.800426000000002
 20
22.134511000000003
 11
30.968570999999997
 21
22.18533
  0
LINE
  8
_0-2____C_ä___1
  6
CONTINUOUS
 62
    7
 10
31.535496000000002
 20
23.879285000000003
 11
31.714441000000001
 21
23.629254000000003
  0
LINE
  8
_0-2____C_ä___1
  6
CONTINUOUS
 62
    7
 10
31.714441000000001
 20
23.629254000000003
 11
31.817530999999999
 21
23.393589000000002
  0
LINE
  8
_0-2____C_ä___1
  6
CONTINUOUS
 62
    7
 10
31.817530999999999
 20
23.393589000000002
 11
31.838221999999998
 21
23.191839000000002
  0
LINE
  8
_0-2____C_ä___1
  6
CONTINUOUS
 62
    7
 10
31.838221999999998
 20
23.191839000000002
 11
31.769970000000001
 21
23.043556000000002
  0
LINE
  8
_0-2____C_ä___1
  6
CONTINUOUS
 62
    7
 10
31.769970000000001
 20
23.043556000000002
 11
31.606313
 21
22.976702000000003
  0
LINE
  8
_0-2____C_ä___1
  6
CONTINUOUS
 62
    7
 10
31.606313
 20
22.976702000000003
 11
31.389283000000002
 21
23.019011000000003
  0
LINE
  8
_0-2____C_ä___1
  6
CONTINUOUS
 62
    7
 10
31.389283000000002
 20
23.019011000000003
 11
31.150205999999997
 21
23.15559
  0
LINE
  8
_0-2____C_ä___1
  6
CONTINUOUS
 62
    7
 10
31.150205999999997
 20
23.15559
 11
30.920409000000003
 21
23.371548000000001
  0
LINE
  8
_0-2____C_ä___1
  6
CONTINUOUS
 62
    7
 10
30.920409000000003
 20
23.371548000000001
 11
30.743759000000001
 21
23.629983000000003
  0
LINE
  8
_0-2____C_ä___1
  6
CONTINUOUS
 62
    7
 10
30.743759000000001
 20
23.629983000000003
 11
30.648546
 21
23.883587000000002
  0
LINE
  8
_0-2____C_ä___1
  6
CONTINUOUS
 62
    7
 10
30.648546
 20
23.883587000000002
 11
30.642410999999999
 21
24.101899000000003
  0
LINE
  8
_0-2____C_ä___1
  6
CONTINUOUS
 62
    7
 10
30.642410999999999
 20
24.101899000000003
 11
30.732996
 21
24.254457000000002
  0
LINE
  8
_0-2____C_ä___1
  6
CONTINUOUS
 62
    7
 10
30.732996
 20
24.254457000000002
 11
30.873273999999999
 21
24.285482000000002
  0
LINE
  8
_0-2____C_ä___1
  6
CONTINUOUS
 62
    7
 10
30.873273999999999
 20
24.285482000000002
 11
31.075864000000003
 21
24.230118000000001
  0
LINE
  8
_0-2____C_ä___1
  6
CONTINUOUS
 62
    7
 10
31.075864000000003
 20
24.230118000000001
 11
31.307646000000002
 21
24.093130000000002
  0
LINE
  8
_0-2____C_ä___1
  6
CONTINUOUS
 62
    7
 10
31.307646000000002
 20
24.093130000000002
 11
31.535496000000002
 21
23.879285000000003
  0
LINE
  8
_0-2____C_ä___1
  6
CONTINUOUS
 62
    7
 10
29.702046000000003
 20
23.613014000000003
 11
29.733893999999999
 21
23.708114000000002
  0
LINE
  8
_0-2____C_ä___1
  6
CONTINUOUS
 62
    7
 10
29.733893999999999
 20
23.708114000000002
 11
29.876390000000001
 21
23.894367000000003
  0
LINE
  8
_0-2____C_ä___1
  6
CONTINUOUS
 62
    7
 10
29.876390000000001
 20
23.894367000000003
 11
30.199968999999999
 21
24.023204000000003
  0
LINE
  8
_0-2____C_ä___1
  6
CONTINUOUS
 62
    7
 10
30.907007
 20
22.157630000000001
 11
31.020528000000002
 21
22.175104000000001
  0
LINE
  8
_0-2____C_ä___1
  6
CONTINUOUS
 62
    7
 10
31.020528000000002
 20
22.175104000000001
 11
31.252155000000002
 21
22.284829000000002
  0
LINE
  8
_0-2____C_ä___1
  6
CONTINUOUS
 62
    7
 10
31.252155000000002
 20
22.284829000000002
 11
31.438482
 21
22.572766000000001
  0
LINE
  8
_0-2____C_ä___1
  6
CONTINUOUS
 62
    7
 10
29.788691999999998
 20
22.811406000000002
 11
29.868932000000001
 21
22.899730000000002
  0
LINE
  8
_0-2____C_ä___1
  6
CONTINUOUS
 62
    7
 10
29.868932000000001
 20
22.899730000000002
 11
30.066765
 21
23.075368000000001
  0
LINE
  8
_0-2____C_ä___1
  6
CONTINUOUS
 62
    7
 10
30.066765
 20
23.075368000000001
 11
30.317860000000003
 21
23.204321
  0
LINE
  8
_0-2____C_ä___1
  6
CONTINUOUS
 62
    7
 10
30.317860000000003
 20
23.204321
 11
29.788691999999998
 21
22.811406000000002
  0
LINE
  8
_0-2____C_ä___1
  6
CONTINUOUS
 62
    7
 10
30.641354000000003
 20
23.921971000000003
 11
30.696303
 21
23.913645000000002
  0
LINE
  8
_0-2____C_ä___1
  6
CONTINUOUS
 62
    7
 10
30.696303
 20
23.913645000000002
 11
30.869272000000002
 21
23.827254
  0
LINE
  8
_0-2____C_ä___1
  6
CONTINUOUS
 62
    7
 10
30.869272000000002
 20
23.827254
 11
31.172452
 21
23.570674
  0
LINE
  8
_0-2____C_ä___1
  6
CONTINUOUS
 62
    7
 10
31.172452
 20
23.570674
 11
31.362301000000002
 21
23.297918000000003
  0
LINE
  8
_0-2____C_ä___1
  6
CONTINUOUS
 62
    7
 10
31.362301000000002
 20
23.297918000000003
 11
31.414202000000003
 21
23.091905000000001
  0
LINE
  8
_0-2____C_ä___1
  6
CONTINUOUS
 62
    7
 10
31.414202000000003
 20
23.091905000000001
 11
31.412711999999999
 21
23.010398000000002
  0
LINE
  8
_0-2____C_ä___1
  6
CONTINUOUS
 62
    7
 10
28.979231999999996
 20
21.779529
 11
28.950378000000001
 21
21.665483999999999
  0
LINE
  8
_0-2____C_ä___1
  6
CONTINUOUS
 62
    7
 10
28.950378000000001
 20
21.665483999999999
 11
28.874568
 21
21.584428000000003
  0
LINE
  8
_0-2____C_ä___1
  6
CONTINUOUS
 62
    7
 10
28.874568
 20
21.584428000000003
 11
28.767924000000001
 21
21.553582000000002
  0
LINE
  8
_0-2____C_ä___1
  6
CONTINUOUS
 62
    7
 10
28.767924000000001
 20
21.553582000000002
 11
28.661221000000001
 21
21.584428000000003
  0
LINE
  8
_0-2____C_ä___1
  6
CONTINUOUS
 62
    7
 10
28.661221000000001
 20
21.584428000000003
 11
28.585388999999999
 21
21.665483999999999
  0
LINE
  8
_0-2____C_ä___1
  6
CONTINUOUS
 62
    7
 10
28.585388999999999
 20
21.665483999999999
 11
28.556532000000001
 21
21.779529
  0
LINE
  8
_0-2____C_ä___1
  6
CONTINUOUS
 62
    7
 10
28.556532000000001
 20
21.779529
 11
28.585388999999999
 21
21.893579000000003
  0
LINE
  8
_0-2____C_ä___1
  6
CONTINUOUS
 62
    7
 10
28.585388999999999
 20
21.893579000000003
 11
28.661221000000001
 21
21.974644000000001
  0
LINE
  8
_0-2____C_ä___1
  6
CONTINUOUS
 62
    7
 10
28.661221000000001
 20
21.974644000000001
 11
28.767924000000001
 21
22.005495
  0
LINE
  8
_0-2____C_ä___1
  6
CONTINUOUS
 62
    7
 10
28.767924000000001
 20
22.005495
 11
28.874568
 21
21.974625000000003
  0
LINE
  8
_0-2____C_ä___1
  6
CONTINUOUS
 62
    7
 10
28.874568
 20
21.974625000000003
 11
28.950378000000001
 21
21.893542
  0
LINE
  8
_0-2____C_ä___1
  6
CONTINUOUS
 62
    7
 10
28.950378000000001
 20
21.893542
 11
28.979231999999996
 21
21.779529
  0
LINE
  8
_0-2____C_ä___1
  6
CONTINUOUS
 62
    7
 10
28.767924000000001
 20
22.005495
 11
28.895895000000003
 21
22.005495
  0
LINE
  8
_0-2____C_ä___1
  6
CONTINUOUS
 62
    7
 10
28.767924000000001
 20
21.553582000000002
 11
28.823757999999998
 21
21.54824
  0
LINE
  8
_0-2____C_ä___1
  6
CONTINUOUS
 62
    7
 10
28.823757999999998
 20
21.54824
 11
28.948719000000001
 21
21.589741000000004
  0
LINE
  8
_0-2____C_ä___1
  6
CONTINUOUS
 62
    7
 10
28.948719000000001
 20
21.589741000000004
 11
29.079001000000002
 21
21.76437
  0
LINE
  8
_0-2____C_ä___1
  6
CONTINUOUS
 62
    7
 10
28.685692000000003
 20
21.987788999999999
 11
28.872208999999998
 21
22.207720999999999
  0
LINE
  8
_0-2____C_ä___1
  6
CONTINUOUS
 62
    7
 10
30.823048999999997
 20
23.608880000000003
 11
31.114540000000002
 21
23.506817000000002
  0
LINE
  8
_0-2____C_ä___1
  6
CONTINUOUS
 62
    7
 10
30.961543000000002
 20
23.463084000000002
 11
31.209349
 21
23.382915000000001
  0
LINE
  8
_0-2____C_ä___1
  6
CONTINUOUS
 62
    7
 10
28.696681000000002
 20
21.535668000000001
 11
28.617615999999998
 21
21.490452000000001
  0
LINE
  8
_0-2____C_ä___1
  6
CONTINUOUS
 62
    7
 10
28.617615999999998
 20
21.490452000000001
 11
28.617615999999998
 21
21.182200999999999
  0
LINE
  8
_0-2____C_ä___1
  6
CONTINUOUS
 62
    7
 10
28.617615999999998
 20
21.182200999999999
 11
28.550273000000001
 21
21.164798000000001
  0
LINE
  8
_0-2____C_ä___1
  6
CONTINUOUS
 62
    7
 10
28.550273000000001
 20
21.164798000000001
 11
28.459395000000001
 21
21.110589000000001
  0
LINE
  8
_0-2____C_ä___1
  6
CONTINUOUS
 62
    7
 10
28.459395000000001
 20
21.110589000000001
 11
28.511712000000003
 21
21.016579000000004
  0
LINE
  8
_0-2____C_ä___1
  6
CONTINUOUS
 62
    7
 10
28.511712000000003
 20
21.016579000000004
 11
28.594533999999999
 21
20.988879000000001
  0
LINE
  8
_0-2____C_ä___1
  6
CONTINUOUS
 62
    7
 10
28.594533999999999
 20
20.988879000000001
 11
28.879907000000003
 21
18.789044000000001
  0
LINE
  8
_0-2____C_ä___1
  6
CONTINUOUS
 62
    7
 10
28.879907000000003
 20
18.789044000000001
 11
28.916719000000001
 21
18.789044000000001
  0
LINE
  8
_0-2____C_ä___1
  6
CONTINUOUS
 62
    7
 10
28.916719000000001
 20
18.789044000000001
 11
29.119221
 21
20.993288000000003
  0
LINE
  8
_0-2____C_ä___1
  6
CONTINUOUS
 62
    7
 10
29.119221
 20
20.993288000000003
 11
29.138475
 21
20.995865000000002
  0
LINE
  8
_0-2____C_ä___1
  6
CONTINUOUS
 62
    7
 10
29.138475
 20
20.995865000000002
 11
29.184303
 21
21.010729000000001
  0
LINE
  8
_0-2____C_ä___1
  6
CONTINUOUS
 62
    7
 10
29.184303
 20
21.010729000000001
 11
29.238802
 21
21.048583000000001
  0
LINE
  8
_0-2____C_ä___1
  6
CONTINUOUS
 62
    7
 10
29.238802
 20
21.048583000000001
 11
29.265906999999999
 21
21.101922999999999
  0
LINE
  8
_0-2____C_ä___1
  6
CONTINUOUS
 62
    7
 10
29.265906999999999
 20
21.101922999999999
 11
29.236253999999999
 21
21.151696000000001
  0
LINE
  8
_0-2____C_ä___1
  6
CONTINUOUS
 62
    7
 10
29.236253999999999
 20
21.151696000000001
 11
29.142147999999999
 21
21.191278000000001
  0
LINE
  8
_0-2____C_ä___1
  6
CONTINUOUS
 62
    7
 10
29.142147999999999
 20
21.191278000000001
 11
29.142147999999999
 21
21.644429000000002
  0
LINE
  8
_0-2____C_ä___1
  6
CONTINUOUS
 62
    7
 10
29.142147999999999
 20
21.644429000000002
 11
28.696681000000002
 21
21.535668000000001
  0
LINE
  8
_0-2____C_ä___1
  6
CONTINUOUS
 62
    7
 10
28.540463000000003
 20
21.045224000000001
 11
28.620301999999999
 21
21.021433999999999
  0
LINE
  8
_0-2____C_ä___1
  6
CONTINUOUS
 62
    7
 10
28.620301999999999
 20
21.021433999999999
 11
28.841670000000001
 21
20.997643
  0
LINE
  8
_0-2____C_ä___1
  6
CONTINUOUS
 62
    7
 10
28.841670000000001
 20
20.997643
 11
29.177341000000002
 21
21.045224000000001
  0
LINE
  8
_0-2____C_ä___1
  6
CONTINUOUS
 62
    7
 10
28.894103000000001
 20
18.912307999999999
 11
28.781810000000004
 21
20.738939000000002
  0
LINE
  8
_0-2____C_ä___1
  6
CONTINUOUS
 62
    7
 10
28.781810000000004
 20
20.738939000000002
 11
28.781810000000004
 21
20.910297
  0
LINE
  8
_0-2____C_ä___1
  6
CONTINUOUS
 62
    7
 10
28.781810000000004
 20
20.910297
 11
28.870315000000002
 21
19.605532
  0
LINE
  8
_0-2____C_ä___1
  6
CONTINUOUS
 62
    7
 10
28.870315000000002
 20
19.605532
 11
28.921904999999999
 21
21.000524000000002
  0
LINE
  8
_0-2____C_ä___1
  6
CONTINUOUS
 62
    7
 10
28.921904999999999
 20
21.000524000000002
 11
28.894103000000001
 21
18.912307999999999
  0
LINE
  8
_0-2____C_ä___1
  6
CONTINUOUS
 62
    7
 10
28.654561999999999
 20
21.064275000000002
 11
28.654561999999999
 21
21.458945
  0
LINE
  8
_0-2____C_ä___1
  6
CONTINUOUS
 62
    7
 10
28.654561999999999
 20
21.458945
 11
28.697870000000002
 21
21.502164
  0
LINE
  8
_0-2____C_ä___1
  6
CONTINUOUS
 62
    7
 10
28.697870000000002
 20
21.502164
 11
28.761894999999999
 21
21.502164
  0
LINE
  8
_0-2____C_ä___1
  6
CONTINUOUS
 62
    7
 10
28.761894999999999
 20
21.502164
 11
28.761894999999999
 21
21.396677
  0
LINE
  8
_0-2____C_ä___1
  6
CONTINUOUS
 62
    7
 10
28.761894999999999
 20
21.396677
 11
28.734163000000002
 21
21.396677
  0
LINE
  8
_0-2____C_ä___1
  6
CONTINUOUS
 62
    7
 10
28.734163000000002
 20
21.396677
 11
28.734163000000002
 21
21.479858000000004
  0
LINE
  8
_0-2____C_ä___1
  6
CONTINUOUS
 62
    7
 10
28.734163000000002
 20
21.479858000000004
 11
28.668464999999998
 21
21.438139000000003
  0
LINE
  8
_0-2____C_ä___1
  6
CONTINUOUS
 62
    7
 10
28.668464999999998
 20
21.438139000000003
 11
28.668464999999998
 21
21.112697000000001
  0
LINE
  8
_0-2____C_ä___1
  6
CONTINUOUS
 62
    7
 10
28.668464999999998
 20
21.112697000000001
 11
28.69613
 21
21.084997000000001
  0
LINE
  8
_0-2____C_ä___1
  6
CONTINUOUS
 62
    7
 10
28.69613
 20
21.084997000000001
 11
28.69613
 21
21.064275000000002
  0
LINE
  8
_0-2____C_ä___1
  6
CONTINUOUS
 62
    7
 10
28.69613
 20
21.064275000000002
 11
28.654561999999999
 21
21.064275000000002
  0
LINE
  8
_0-2____C_ä___1
  6
CONTINUOUS
 62
    7
 10
29.03895
 20
21.559318000000001
 11
29.03895
 21
21.507368
  0
LINE
  8
_0-2____C_ä___1
  6
CONTINUOUS
 62
    7
 10
29.03895
 20
21.507368
 11
28.948914000000002
 21
21.472813000000002
  0
LINE
  8
_0-2____C_ä___1
  6
CONTINUOUS
 62
    7
 10
28.948914000000002
 20
21.472813000000002
 11
28.948914000000002
 21
21.053804
  0
LINE
  8
_0-2____C_ä___1
  6
CONTINUOUS
 62
    7
 10
28.948914000000002
 20
21.053804
 11
28.993973999999998
 21
21.053804
  0
LINE
  8
_0-2____C_ä___1
  6
CONTINUOUS
 62
    7
 10
28.993973999999998
 20
21.053804
 11
29.028599
 21
21.088443000000002
  0
LINE
  8
_0-2____C_ä___1
  6
CONTINUOUS
 62
    7
 10
29.028599
 20
21.088443000000002
 11
28.993925000000004
 21
21.123033
  0
LINE
  8
_0-2____C_ä___1
  6
CONTINUOUS
 62
    7
 10
28.993925000000004
 20
21.123033
 11
28.993925000000004
 21
21.448630000000001
  0
LINE
  8
_0-2____C_ä___1
  6
CONTINUOUS
 62
    7
 10
28.993925000000004
 20
21.448630000000001
 11
29.080550000000002
 21
21.483305000000001
  0
LINE
  8
_0-2____C_ä___1
  6
CONTINUOUS
 62
    7
 10
29.080550000000002
 20
21.483305000000001
 11
29.080550000000002
 21
21.566296000000001
  0
LINE
  8
_0-2____C_ä___1
  6
CONTINUOUS
 62
    7
 10
29.080550000000002
 20
21.566296000000001
 11
29.03895
 21
21.559318000000001
  0
LINE
  8
_0-2____C_ä___1
  6
CONTINUOUS
 62
    7
 10
29.115157
 20
21.601041000000002
 11
29.115157
 21
21.143840000000001
  0
LINE
  8
_0-2____C_ä___1
  6
CONTINUOUS
 62
    7
 10
29.115157
 20
21.143840000000001
 11
29.114058999999997
 21
21.135843000000001
  0
LINE
  8
_0-2____C_ä___1
  6
CONTINUOUS
 62
    7
 10
29.114058999999997
 20
21.135843000000001
 11
29.101799
 21
21.116675000000001
  0
LINE
  8
_0-2____C_ä___1
  6
CONTINUOUS
 62
    7
 10
29.101799
 20
21.116675000000001
 11
29.064929000000003
 21
21.093576000000002
  0
LINE
  8
_0-2____C_ä___1
  6
CONTINUOUS
 62
    7
 10
28.810402
 20
21.112697000000001
 11
28.830151999999998
 21
21.110408000000003
  0
LINE
  8
_0-2____C_ä___1
  6
CONTINUOUS
 62
    7
 10
28.830151999999998
 20
21.110408000000003
 11
28.880680999999999
 21
21.108119000000002
  0
LINE
  8
_0-2____C_ä___1
  6
CONTINUOUS
 62
    7
 10
28.880680999999999
 20
21.108119000000002
 11
28.948914000000002
 21
21.112697000000001
  0
LINE
  8
_0-2____C_ä___1
  6
CONTINUOUS
 62
    7
 10
28.758416999999998
 20
21.157673000000003
 11
28.758416999999998
 21
21.105719000000001
  0
LINE
  8
_0-2____C_ä___1
  6
CONTINUOUS
 62
    7
 10
28.727632999999997
 20
20.637755000000002
 11
28.716043000000003
 21
20.577021000000002
  0
LINE
  8
_0-2____C_ä___1
  6
CONTINUOUS
 62
    7
 10
28.716043000000003
 20
20.577021000000002
 11
28.680808000000003
 21
20.413653
  0
LINE
  8
_0-2____C_ä___1
  6
CONTINUOUS
 62
    7
 10
28.680808000000003
 20
20.413653
 11
28.621231000000002
 21
20.175898000000004
  0
LINE
  8
_0-2____C_ä___1
  6
CONTINUOUS
 62
    7
 10
28.621231000000002
 20
20.175898000000004
 11
28.536618000000001
 21
19.892007000000003
  0
LINE
  8
_0-2____C_ä___1
  6
CONTINUOUS
 62
    7
 10
28.536618000000001
 20
19.892007000000003
 11
28.426272999999998
 21
19.590227000000002
  0
LINE
  8
_0-2____C_ä___1
  6
CONTINUOUS
 62
    7
 10
28.426272999999998
 20
19.590227000000002
 11
28.289499000000003
 21
19.298808000000001
  0
LINE
  8
_0-2____C_ä___1
  6
CONTINUOUS
 62
    7
 10
28.289499000000003
 20
19.298808000000001
 11
28.125601000000003
 21
19.045999000000002
  0
LINE
  8
_0-2____C_ä___1
  6
CONTINUOUS
 62
    7
 10
28.125601000000003
 20
19.045999000000002
 11
27.933882000000001
 21
18.860048000000003
  0
LINE
  8
_0-2____C_ä___1
  6
CONTINUOUS
 62
    7
 10
28.750561000000001
 20
20.162466999999999
 11
28.740310000000001
 21
20.086252999999999
  0
LINE
  8
_0-2____C_ä___1
  6
CONTINUOUS
 62
    7
 10
28.740310000000001
 20
20.086252999999999
 11
28.711232000000003
 21
19.884127000000003
  0
LINE
  8
_0-2____C_ä___1
  6
CONTINUOUS
 62
    7
 10
28.711232000000003
 20
19.884127000000003
 11
28.665837
 21
19.595859000000001
  0
LINE
  8
_0-2____C_ä___1
  6
CONTINUOUS
 62
    7
 10
28.665837
 20
19.595859000000001
 11
28.606634
 21
19.261221000000003
  0
LINE
  8
_0-2____C_ä___1
  6
CONTINUOUS
 62
    7
 10
28.606634
 20
19.261221000000003
 11
28.536131999999998
 21
18.919983999999999
  0
LINE
  8
_0-2____C_ä___1
  6
CONTINUOUS
 62
    7
 10
28.536131999999998
 20
18.919983999999999
 11
28.456842999999999
 21
18.611920000000001
  0
LINE
  8
_0-2____C_ä___1
  6
CONTINUOUS
 62
    7
 10
28.456842999999999
 20
18.611920000000001
 11
28.371276000000002
 21
18.376801
  0
LINE
  8
_0-2____C_ä___1
  6
CONTINUOUS
 62
    7
 10
28.371276000000002
 20
18.376801
 11
28.281939999999999
 21
18.254397000000001
  0
LINE
  8
_0-2____C_ä___1
  6
CONTINUOUS
 62
    7
 10
27.776252999999997
 20
18.865251000000001
 11
27.809393
 21
18.796346
  0
LINE
  8
_0-2____C_ä___1
  6
CONTINUOUS
 62
    7
 10
27.809393
 20
18.796346
 11
27.753326000000001
 21
18.666090000000001
  0
LINE
  8
_0-2____C_ä___1
  6
CONTINUOUS
 62
    7
 10
27.753326000000001
 20
18.666090000000001
 11
27.781385999999998
 21
18.638044000000001
  0
LINE
  8
_0-2____C_ä___1
  6
CONTINUOUS
 62
    7
 10
27.781385999999998
 20
18.638044000000001
 11
27.781385999999998
 21
18.602318
  0
LINE
  8
_0-2____C_ä___1
  6
CONTINUOUS
 62
    7
 10
27.781385999999998
 20
18.602318
 11
27.717495000000003
 21
18.579373
  0
LINE
  8
_0-2____C_ä___1
  6
CONTINUOUS
 62
    7
 10
27.717495000000003
 20
18.579373
 11
27.685561000000003
 21
18.547405000000001
  0
LINE
  8
_0-2____C_ä___1
  6
CONTINUOUS
 62
    7
 10
27.685561000000003
 20
18.547405000000001
 11
27.665181000000004
 21
18.567764
  0
LINE
  8
_0-2____C_ä___1
  6
CONTINUOUS
 62
    7
 10
27.665181000000004
 20
18.567764
 11
27.610334999999999
 21
18.567764
  0
LINE
  8
_0-2____C_ä___1
  6
CONTINUOUS
 62
    7
 10
27.610334999999999
 20
18.567764
 11
27.561778
 21
18.673667999999999
  0
LINE
  8
_0-2____C_ä___1
  6
CONTINUOUS
 62
    7
 10
27.561778
 20
18.673667999999999
 11
27.653726000000002
 21
18.875379000000002
  0
LINE
  8
_0-2____C_ä___1
  6
CONTINUOUS
 62
    7
 10
27.653726000000002
 20
18.875379000000002
 11
27.715015000000001
 21
18.875379000000002
  0
LINE
  8
_0-2____C_ä___1
  6
CONTINUOUS
 62
    7
 10
27.715015000000001
 20
18.875379000000002
 11
27.750691000000003
 21
18.967363000000002
  0
LINE
  8
_0-2____C_ä___1
  6
CONTINUOUS
 62
    7
 10
27.750691000000003
 20
18.967363000000002
 11
27.896315000000001
 21
18.990306999999998
  0
LINE
  8
_0-2____C_ä___1
  6
CONTINUOUS
 62
    7
 10
27.896315000000001
 20
18.990306999999998
 11
27.924392000000001
 21
18.962332
  0
LINE
  8
_0-2____C_ä___1
  6
CONTINUOUS
 62
    7
 10
27.924392000000001
 20
18.962332
 11
27.883463000000003
 21
18.913757999999998
  0
LINE
  8
_0-2____C_ä___1
  6
CONTINUOUS
 62
    7
 10
27.883463000000003
 20
18.913757999999998
 11
28.041782999999999
 21
18.650825000000001
  0
LINE
  8
_0-2____C_ä___1
  6
CONTINUOUS
 62
    7
 10
28.041782999999999
 20
18.650825000000001
 11
28.008572000000001
 21
18.581856999999999
  0
LINE
  8
_0-2____C_ä___1
  6
CONTINUOUS
 62
    7
 10
28.008572000000001
 20
18.581856999999999
 11
27.977979000000001
 21
18.581856999999999
  0
LINE
  8
_0-2____C_ä___1
  6
CONTINUOUS
 62
    7
 10
27.977979000000001
 20
18.581856999999999
 11
27.977979000000001
 21
18.655856
  0
LINE
  8
_0-2____C_ä___1
  6
CONTINUOUS
 62
    7
 10
27.977979000000001
 20
18.655856
 11
27.863104
 21
18.770783999999999
  0
LINE
  8
_0-2____C_ä___1
  6
CONTINUOUS
 62
    7
 10
27.863104
 20
18.770783999999999
 11
27.809393
 21
18.885712000000002
  0
LINE
  8
_0-2____C_ä___1
  6
CONTINUOUS
 62
    7
 10
27.809393
 20
18.885712000000002
 11
27.776252999999997
 21
18.865251000000001
  0
LINE
  8
_0-2____C_ä___1
  6
CONTINUOUS
 62
    7
 10
27.837160999999998
 20
18.617583
 11
27.856793
 21
18.598876000000001
  0
LINE
  8
_0-2____C_ä___1
  6
CONTINUOUS
 62
    7
 10
27.856793
 20
18.598876000000001
 11
27.879669000000003
 21
18.591730000000002
  0
LINE
  8
_0-2____C_ä___1
  6
CONTINUOUS
 62
    7
 10
27.879669000000003
 20
18.591730000000002
 11
27.900964000000002
 21
18.597669
  0
LINE
  8
_0-2____C_ä___1
  6
CONTINUOUS
 62
    7
 10
27.900964000000002
 20
18.597669
 11
27.912613
 21
18.611658000000002
  0
LINE
  8
_0-2____C_ä___1
  6
CONTINUOUS
 62
    7
 10
27.912613
 20
18.611658000000002
 11
27.916409000000002
 21
18.630507999999999
  0
LINE
  8
_0-2____C_ä___1
  6
CONTINUOUS
 62
    7
 10
27.916409000000002
 20
18.630507999999999
 11
27.912196999999999
 21
18.651273
  0
LINE
  8
_0-2____C_ä___1
  6
CONTINUOUS
 62
    7
 10
27.912196999999999
 20
18.651273
 11
27.910080999999998
 21
18.642358999999999
  0
LINE
  8
_0-2____C_ä___1
  6
CONTINUOUS
 62
    7
 10
27.910080999999998
 20
18.642358999999999
 11
27.905853000000004
 21
18.634592000000001
  0
LINE
  8
_0-2____C_ä___1
  6
CONTINUOUS
 62
    7
 10
27.905853000000004
 20
18.634592000000001
 11
27.899433000000002
 21
18.628434000000002
  0
LINE
  8
_0-2____C_ä___1
  6
CONTINUOUS
 62
    7
 10
27.899433000000002
 20
18.628434000000002
 11
27.881898000000003
 21
18.623438
  0
LINE
  8
_0-2____C_ä___1
  6
CONTINUOUS
 62
    7
 10
27.881898000000003
 20
18.623438
 11
27.863153999999998
 21
18.629031000000001
  0
LINE
  8
_0-2____C_ä___1
  6
CONTINUOUS
 62
    7
 10
27.863153999999998
 20
18.629031000000001
 11
27.847169000000005
 21
18.644040999999998
  0
LINE
  8
_0-2____C_ä___1
  6
CONTINUOUS
 62
    7
 10
27.847169000000005
 20
18.644040999999998
 11
27.840690000000002
 21
18.657464000000001
  0
LINE
  8
_0-2____C_ä___1
  6
CONTINUOUS
 62
    7
 10
27.840690000000002
 20
18.657464000000001
 11
27.838819000000001
 21
18.671095000000001
  0
LINE
  8
_0-2____C_ä___1
  6
CONTINUOUS
 62
    7
 10
27.838819000000001
 20
18.671095000000001
 11
27.841193000000001
 21
18.683831000000001
  0
LINE
  8
_0-2____C_ä___1
  6
CONTINUOUS
 62
    7
 10
27.841193000000001
 20
18.683831000000001
 11
27.828357999999998
 21
18.666126999999999
  0
LINE
  8
_0-2____C_ä___1
  6
CONTINUOUS
 62
    7
 10
27.828357999999998
 20
18.666126999999999
 11
27.826903000000001
 21
18.642406000000001
  0
LINE
  8
_0-2____C_ä___1
  6
CONTINUOUS
 62
    7
 10
27.826903000000001
 20
18.642406000000001
 11
27.837160999999998
 21
18.617583
  0
LINE
  8
_0-2____C_ä___1
  6
CONTINUOUS
 62
    7
 10
27.945785000000001
 20
18.504962000000003
 11
28.049932000000002
 21
18.407154000000002
  0
LINE
  8
_0-2____C_ä___1
  6
CONTINUOUS
 62
    7
 10
28.049932000000002
 20
18.407154000000002
 11
28.057414000000001
 21
18.398688
  0
LINE
  8
_0-2____C_ä___1
  6
CONTINUOUS
 62
    7
 10
28.057414000000001
 20
18.398688
 11
28.065324999999998
 21
18.376587000000001
  0
LINE
  8
_0-2____C_ä___1
  6
CONTINUOUS
 62
    7
 10
28.065324999999998
 20
18.376587000000001
 11
28.051862
 21
18.345794999999999
  0
LINE
  8
_0-2____C_ä___1
  6
CONTINUOUS
 62
    7
 10
28.051862
 20
18.345794999999999
 11
28.067309999999999
 21
18.352219000000002
  0
LINE
  8
_0-2____C_ä___1
  6
CONTINUOUS
 62
    7
 10
28.067309999999999
 20
18.352219000000002
 11
28.089534
 21
18.372883999999999
  0
LINE
  8
_0-2____C_ä___1
  6
CONTINUOUS
 62
    7
 10
28.089534
 20
18.372883999999999
 11
28.082349000000001
 21
18.409877000000002
  0
LINE
  8
_0-2____C_ä___1
  6
CONTINUOUS
 62
    7
 10
28.082349000000001
 20
18.409877000000002
 11
27.962322999999998
 21
18.522774000000002
  0
LINE
  8
_0-2____C_ä___1
  6
CONTINUOUS
 62
    7
 10
27.962322999999998
 20
18.522774000000002
 11
27.945785000000001
 21
18.504962000000003
  0
LINE
  8
_0-2____C_ä___1
  6
CONTINUOUS
 62
    7
 10
28.029347000000001
 20
18.531314000000002
 11
28.110962999999998
 21
18.454525
  0
LINE
  8
_0-2____C_ä___1
  6
CONTINUOUS
 62
    7
 10
28.110962999999998
 20
18.454525
 11
28.11683
 21
18.447880000000001
  0
LINE
  8
_0-2____C_ä___1
  6
CONTINUOUS
 62
    7
 10
28.11683
 20
18.447880000000001
 11
28.123038000000005
 21
18.430531999999999
  0
LINE
  8
_0-2____C_ä___1
  6
CONTINUOUS
 62
    7
 10
28.123038000000005
 20
18.430531999999999
 11
28.112493999999998
 21
18.406360000000003
  0
LINE
  8
_0-2____C_ä___1
  6
CONTINUOUS
 62
    7
 10
28.112493999999998
 20
18.406360000000003
 11
28.124595999999997
 21
18.411442000000001
  0
LINE
  8
_0-2____C_ä___1
  6
CONTINUOUS
 62
    7
 10
28.124595999999997
 20
18.411442000000001
 11
28.142015000000001
 21
18.427716
  0
LINE
  8
_0-2____C_ä___1
  6
CONTINUOUS
 62
    7
 10
28.142015000000001
 20
18.427716
 11
28.136419000000004
 21
18.45673
  0
LINE
  8
_0-2____C_ä___1
  6
CONTINUOUS
 62
    7
 10
28.136419000000004
 20
18.45673
 11
28.042300999999998
 21
18.545200000000001
  0
LINE
  8
_0-2____C_ä___1
  6
CONTINUOUS
 62
    7
 10
28.042300999999998
 20
18.545200000000001
 11
28.029347000000001
 21
18.531314000000002
  0
LINE
  8
_0-2____C_ä___1
  6
CONTINUOUS
 62
    7
 10
28.286212000000003
 20
17.943787
 11
28.09985
 21
17.734497000000001
  0
LINE
  8
_0-2____C_ä___1
  6
CONTINUOUS
 62
    7
 10
28.09985
 20
17.734497000000001
 11
28.051121000000002
 21
17.783110000000001
  0
LINE
  8
_0-2____C_ä___1
  6
CONTINUOUS
 62
    7
 10
28.051121000000002
 20
17.783110000000001
 11
28.083072000000001
 21
17.820039000000001
  0
LINE
  8
_0-2____C_ä___1
  6
CONTINUOUS
 62
    7
 10
28.083072000000001
 20
17.820039000000001
 11
27.907990999999999
 21
17.982510999999999
  0
LINE
  8
_0-2____C_ä___1
  6
CONTINUOUS
 62
    7
 10
27.907990999999999
 20
17.982510999999999
 11
27.949697
 21
18.024128000000001
  0
LINE
  8
_0-2____C_ä___1
  6
CONTINUOUS
 62
    7
 10
27.949697
 20
18.024128000000001
 11
28.067052000000004
 21
17.916364999999999
  0
LINE
  8
_0-2____C_ä___1
  6
CONTINUOUS
 62
    7
 10
28.067052000000004
 20
17.916364999999999
 11
28.104916000000003
 21
17.954088000000002
  0
LINE
  8
_0-2____C_ä___1
  6
CONTINUOUS
 62
    7
 10
28.104916000000003
 20
17.954088000000002
 11
27.992313000000003
 21
18.066744
  0
LINE
  8
_0-2____C_ä___1
  6
CONTINUOUS
 62
    7
 10
27.992313000000003
 20
18.066744
 11
28.034671000000003
 21
18.109049000000002
  0
LINE
  8
_0-2____C_ä___1
  6
CONTINUOUS
 62
    7
 10
28.034671000000003
 20
18.109049000000002
 11
28.194437000000001
 21
17.947921000000001
  0
LINE
  8
_0-2____C_ä___1
  6
CONTINUOUS
 62
    7
 10
28.194437000000001
 20
17.947921000000001
 11
28.233832000000003
 21
17.996326
  0
LINE
  8
_0-2____C_ä___1
  6
CONTINUOUS
 62
    7
 10
28.233832000000003
 20
17.996326
 11
28.286212000000003
 21
17.943787
  0
LINE
  8
_0-2____C_ä___1
  6
CONTINUOUS
 62
    7
 10
28.233832000000003
 20
17.996326
 11
28.245597
 21
18.148564
  0
LINE
  8
_0-2____C_ä___1
  6
CONTINUOUS
 62
    7
 10
28.245597
 20
18.148564
 11
28.296082999999999
 21
18.117008000000002
  0
LINE
  8
_0-2____C_ä___1
  6
CONTINUOUS
 62
    7
 10
28.296082999999999
 20
18.117008000000002
 11
28.286212000000003
 21
17.943787
  0
LINE
  8
_0-2____C_ä___1
  6
CONTINUOUS
 62
    7
 10
28.194437000000001
 20
17.947921000000001
 11
28.197055000000002
 21
18.100163000000002
  0
LINE
  8
_0-2____C_ä___1
  6
CONTINUOUS
 62
    7
 10
28.197055000000002
 20
18.100163000000002
 11
28.245597
 21
18.148564
  0
LINE
  8
_0-2____C_ä___1
  6
CONTINUOUS
 62
    7
 10
28.245597
 20
18.148564
 11
28.302972999999998
 21
18.211161000000001
  0
LINE
  8
_0-2____C_ä___1
  6
CONTINUOUS
 62
    7
 10
28.302972999999998
 20
18.211161000000001
 11
28.232781000000003
 21
18.281304000000002
  0
LINE
  8
_0-2____C_ä___1
  6
CONTINUOUS
 62
    7
 10
28.232781000000003
 20
18.281304000000002
 11
28.151081000000001
 21
18.199622000000002
  0
LINE
  8
_0-2____C_ä___1
  6
CONTINUOUS
 62
    7
 10
28.151081000000001
 20
18.199622000000002
 11
28.093647999999998
 21
18.226355000000002
  0
LINE
  8
_0-2____C_ä___1
  6
CONTINUOUS
 62
    7
 10
28.093647999999998
 20
18.226355000000002
 11
28.050207
 21
18.182945999999998
  0
LINE
  8
_0-2____C_ä___1
  6
CONTINUOUS
 62
    7
 10
28.050207
 20
18.182945999999998
 11
28.065539000000001
 21
18.139571999999998
  0
LINE
  8
_0-2____C_ä___1
  6
CONTINUOUS
 62
    7
 10
28.197055000000002
 20
18.100163000000002
 11
28.151081000000001
 21
18.130751999999998
  0
LINE
  8
_0-2____C_ä___1
  6
CONTINUOUS
 62
    7
 10
28.151081000000001
 20
18.130751999999998
 11
28.148494999999997
 21
18.056683
  0
LINE
  8
_0-2____C_ä___1
  6
CONTINUOUS
 62
    7
 10
28.148494999999997
 20
18.056683
 11
28.065539000000001
 21
18.139571999999998
  0
LINE
  8
_0-2____C_ä___1
  6
CONTINUOUS
 62
    7
 10
28.065539000000001
 20
18.139571999999998
 11
28.034671000000003
 21
18.109049000000002
  0
LINE
  8
_0-2____C_ä___1
  6
CONTINUOUS
 62
    7
 10
28.151081000000001
 20
18.130751999999998
 11
28.111513000000002
 21
18.093717000000002
  0
LINE
  8
_0-2____C_ä___1
  6
CONTINUOUS
 62
    7
 10
28.153267999999997
 20
17.883464999999998
 11
28.150991000000001
 21
17.875023000000002
  0
LINE
  8
_0-2____C_ä___1
  6
CONTINUOUS
 62
    7
 10
28.150991000000001
 20
17.875023000000002
 11
28.145020000000002
 21
17.869053000000001
  0
LINE
  8
_0-2____C_ä___1
  6
CONTINUOUS
 62
    7
 10
28.145020000000002
 20
17.869053000000001
 11
28.136645000000001
 21
17.866789000000001
  0
LINE
  8
_0-2____C_ä___1
  6
CONTINUOUS
 62
    7
 10
28.136645000000001
 20
17.866789000000001
 11
28.128218
 21
17.869053000000001
  0
LINE
  8
_0-2____C_ä___1
  6
CONTINUOUS
 62
    7
 10
28.128218
 20
17.869053000000001
 11
28.122240999999999
 21
17.875023000000002
  0
LINE
  8
_0-2____C_ä___1
  6
CONTINUOUS
 62
    7
 10
28.122240999999999
 20
17.875023000000002
 11
28.119968999999998
 21
17.883464999999998
  0
LINE
  8
_0-2____C_ä___1
  6
CONTINUOUS
 62
    7
 10
28.119968999999998
 20
17.883464999999998
 11
28.122240999999999
 21
17.891802999999999
  0
LINE
  8
_0-2____C_ä___1
  6
CONTINUOUS
 62
    7
 10
28.122240999999999
 20
17.891802999999999
 11
28.128218
 21
17.897760000000002
  0
LINE
  8
_0-2____C_ä___1
  6
CONTINUOUS
 62
    7
 10
28.128218
 20
17.897760000000002
 11
28.136645000000001
 21
17.900034999999999
  0
LINE
  8
_0-2____C_ä___1
  6
CONTINUOUS
 62
    7
 10
28.136645000000001
 20
17.900034999999999
 11
28.145020000000002
 21
17.897760000000002
  0
LINE
  8
_0-2____C_ä___1
  6
CONTINUOUS
 62
    7
 10
28.145020000000002
 20
17.897760000000002
 11
28.150991000000001
 21
17.891802999999999
  0
LINE
  8
_0-2____C_ä___1
  6
CONTINUOUS
 62
    7
 10
28.150991000000001
 20
17.891802999999999
 11
28.153267999999997
 21
17.883464999999998
  0
LINE
  8
_0-2____C_ä___1
  6
CONTINUOUS
 62
    7
 10
27.931263999999999
 20
18.005696
 11
27.798798999999999
 21
18.143190999999998
  0
LINE
  8
_0-2____C_ä___1
  6
CONTINUOUS
 62
    7
 10
27.798798999999999
 20
18.143190999999998
 11
27.793236000000004
 21
18.14958
  0
LINE
  8
_0-2____C_ä___1
  6
CONTINUOUS
 62
    7
 10
27.793236000000004
 20
18.14958
 11
27.786507999999998
 21
18.165040999999999
  0
LINE
  8
_0-2____C_ä___1
  6
CONTINUOUS
 62
    7
 10
27.786507999999998
 20
18.165040999999999
 11
27.793564
 21
18.184014999999999
  0
LINE
  8
_0-2____C_ä___1
  6
CONTINUOUS
 62
    7
 10
27.793564
 20
18.184014999999999
 11
27.808252
 21
18.186139000000001
  0
LINE
  8
_0-2____C_ä___1
  6
CONTINUOUS
 62
    7
 10
27.808252
 20
18.186139000000001
 11
27.823277000000004
 21
18.177814000000001
  0
LINE
  8
_0-2____C_ä___1
  6
CONTINUOUS
 62
    7
 10
27.823277000000004
 20
18.177814000000001
 11
27.830169000000001
 21
18.172129000000002
  0
LINE
  8
_0-2____C_ä___1
  6
CONTINUOUS
 62
    7
 10
27.830169000000001
 20
18.172129000000002
 11
27.925443000000001
 21
18.076664000000001
  0
LINE
  8
_0-2____C_ä___1
  6
CONTINUOUS
 62
    7
 10
27.925443000000001
 20
18.076664000000001
 11
27.929023999999998
 21
18.073111000000001
  0
LINE
  8
_0-2____C_ä___1
  6
CONTINUOUS
 62
    7
 10
27.929023999999998
 20
18.073111000000001
 11
27.938973999999998
 21
18.069365999999999
  0
LINE
  8
_0-2____C_ä___1
  6
CONTINUOUS
 62
    7
 10
27.938973999999998
 20
18.069365999999999
 11
27.954107
 21
18.075803000000004
  0
LINE
  8
_0-2____C_ä___1
  6
CONTINUOUS
 62
    7
 10
27.954107
 20
18.075803000000004
 11
27.959321000000003
 21
18.080819000000002
  0
LINE
  8
_0-2____C_ä___1
  6
CONTINUOUS
 62
    7
 10
27.959321000000003
 20
18.080819000000002
 11
27.96332
 21
18.088347000000002
  0
LINE
  8
_0-2____C_ä___1
  6
CONTINUOUS
 62
    7
 10
27.96332
 20
18.088347000000002
 11
27.962012000000001
 21
18.098991000000002
  0
LINE
  8
_0-2____C_ä___1
  6
CONTINUOUS
 62
    7
 10
27.988418000000003
 20
18.138400000000001
 11
27.892233000000001
 21
18.232454999999998
  0
LINE
  8
_0-2____C_ä___1
  6
CONTINUOUS
 62
    7
 10
27.892233000000001
 20
18.232454999999998
 11
27.887138
 21
18.236298000000001
  0
LINE
  8
_0-2____C_ä___1
  6
CONTINUOUS
 62
    7
 10
27.887138
 20
18.236298000000001
 11
27.874395
 21
18.24014
  0
LINE
  8
_0-2____C_ä___1
  6
CONTINUOUS
 62
    7
 10
27.874395
 20
18.24014
 11
27.857816
 21
18.232454999999998
  0
LINE
  8
_0-2____C_ä___1
  6
CONTINUOUS
 62
    7
 10
27.857816
 20
18.232454999999998
 11
27.862944999999996
 21
18.243489
  0
LINE
  8
_0-2____C_ä___1
  6
CONTINUOUS
 62
    7
 10
27.862944999999996
 20
18.243489
 11
27.878823999999998
 21
18.257616000000002
  0
LINE
  8
_0-2____C_ä___1
  6
CONTINUOUS
 62
    7
 10
27.878823999999998
 20
18.257616000000002
 11
27.906185000000001
 21
18.246372000000001
  0
LINE
  8
_0-2____C_ä___1
  6
CONTINUOUS
 62
    7
 10
27.906185000000001
 20
18.246372000000001
 11
27.945822
 21
18.206780000000002
  0
LINE
  8
_0-2____C_ä___1
  6
CONTINUOUS
 62
    7
 10
27.945822
 20
18.206780000000002
 11
27.984480000000005
 21
18.168151999999999
  0
LINE
  8
_0-2____C_ä___1
  6
CONTINUOUS
 62
    7
 10
27.984480000000005
 20
18.168151999999999
 11
28.001873000000003
 21
18.150769
  0
LINE
  8
_0-2____C_ä___1
  6
CONTINUOUS
 62
    7
 10
28.001873000000003
 20
18.150769
 11
27.988418000000003
 21
18.138400000000001
  0
LINE
  8
_0-2____C_ä___1
  6
CONTINUOUS
 62
    7
 10
27.798369000000005
 20
18.187186000000001
 11
27.803902999999998
 21
18.190366000000001
  0
LINE
  8
_0-2____C_ä___1
  6
CONTINUOUS
 62
    7
 10
27.803902999999998
 20
18.190366000000001
 11
27.821373000000001
 21
18.189104
  0
LINE
  8
_0-2____C_ä___1
  6
CONTINUOUS
 62
    7
 10
27.821373000000001
 20
18.189104
 11
27.852080000000001
 21
18.167201000000002
  0
LINE
  8
_0-2____C_ä___1
  6
CONTINUOUS
 62
    7
 10
27.852080000000001
 20
18.167201000000002
 11
27.885870000000001
 21
18.133368999999998
  0
LINE
  8
_0-2____C_ä___1
  6
CONTINUOUS
 62
    7
 10
27.885870000000001
 20
18.133368999999998
 11
27.909784999999999
 21
18.109398000000002
  0
LINE
  8
_0-2____C_ä___1
  6
CONTINUOUS
 62
    7
 10
27.909784999999999
 20
18.109398000000002
 11
27.944321000000002
 21
18.074738
  0
LINE
  8
_0-2____C_ä___1
  6
CONTINUOUS
 62
    7
 10
27.926957000000002
 20
18.133991000000002
 11
27.881568000000001
 21
18.183500000000002
  0
LINE
  8
_0-2____C_ä___1
  6
CONTINUOUS
 62
    7
 10
28.921438999999999
 20
21.768611
 11
28.895986000000001
 21
21.65991
  0
LINE
  8
_0-2____C_ä___1
  6
CONTINUOUS
 62
    7
 10
28.895986000000001
 20
21.65991
 11
28.829111000000001
 21
21.582591000000001
  0
LINE
  8
_0-2____C_ä___1
  6
CONTINUOUS
 62
    7
 10
28.829111000000001
 20
21.582591000000001
 11
28.735042
 21
21.553151
  0
LINE
  8
_0-2____C_ä___1
  6
CONTINUOUS
 62
    7
 10
28.735042
 20
21.553151
 11
28.640877000000003
 21
21.582591000000001
  0
LINE
  8
_0-2____C_ä___1
  6
CONTINUOUS
 62
    7
 10
28.640877000000003
 20
21.582591000000001
 11
28.573987000000002
 21
21.65991
  0
LINE
  8
_0-2____C_ä___1
  6
CONTINUOUS
 62
    7
 10
28.573987000000002
 20
21.65991
 11
28.548541999999998
 21
21.768611
  0
LINE
  8
_0-2____C_ä___1
  6
CONTINUOUS
 62
    7
 10
28.548541999999998
 20
21.768611
 11
28.573987000000002
 21
21.877302
  0
LINE
  8
_0-2____C_ä___1
  6
CONTINUOUS
 62
    7
 10
28.573987000000002
 20
21.877302
 11
28.640877000000003
 21
21.954623999999999
  0
LINE
  8
_0-2____C_ä___1
  6
CONTINUOUS
 62
    7
 10
28.640877000000003
 20
21.954623999999999
 11
28.735042
 21
21.984067
  0
LINE
  8
_0-2____C_ä___1
  6
CONTINUOUS
 62
    7
 10
28.735042
 20
21.984067
 11
28.829111000000001
 21
21.954623999999999
  0
LINE
  8
_0-2____C_ä___1
  6
CONTINUOUS
 62
    7
 10
28.829111000000001
 20
21.954623999999999
 11
28.895986000000001
 21
21.877302
  0
LINE
  8
_0-2____C_ä___1
  6
CONTINUOUS
 62
    7
 10
28.895986000000001
 20
21.877302
 11
28.921438999999999
 21
21.768611
  0
TEXT
  8
_0-2____C_ä___1
 62
    7
 10
30.464993140135729
 20
17.282679762611902
 40
0.4233339999999999
 41
1
 50
0
  1
YW1412
  0
ENDSEC
  0
EOF
