  0
SECTION
  2
HEADER
  9
$ACADVER
  1
AC1009
  9
$INSBASE
 10
0
 20
0
 30
0
  9
$EXTMIN
 10
0
 20
0
  9
$EXTMAX
 10
59.400000000000006
 20
42
  9
$LIMMIN
 10
0
 20
0
  9
$LIMMAX
 10
59.400000000000006
 20
42
  9
$LTSCALE
 40
0.1
  0
ENDSEC
  0
SECTION
  2
TABLES
  0
TABLE
  2
LTYPE
 70
     9
  0
LTYPE
  2
CONTINUOUS
 70
    64
  3
Ä└É³
 72
    65
 73
     0
 40
0.0
  0
LTYPE
  2
DASHED1
 70
    64
  3
--  --  --  --  --  --  --  --  
 72
    65
 73
     2
 40
2.5
 49
1.25
 49
-1.25
  0
LTYPE
  2
DASHED2
 70
    64
  3
----    ----    ----    ----    
 72
    65
 73
     2
 40
5.0
 49
2.5
 49
-2.5
  0
LTYPE
  2
DASHED3
 70
    64
  3
------  ------  ------  ------  
 72
    65
 73
     2
 40
5.0
 49
3.75
 49
-1.25
  0
LTYPE
  2
CENTER1
 70
    64
  3
----- - ----- - ----- - ----- - 
 72
    65
 73
     4
 40
10.0
 49
6.25
 49
-1.25
 49
1.25
 49
-1.25
  0
LTYPE
  2
CENTER2
 70
    64
  3
----------  --  ----------  --  
 72
    65
 73
     4
 40
20.0
 49
12.5
 49
-2.5
 49
2.5
 49
-2.5
  0
LTYPE
  2
PHANTOM1
 70
    64
  3
--- - - --- - - --- - - --- - - 
 72
    65
 73
     6
 40
10.0
 49
3.25
 49
-1.25
 49
1.25
 49
-1.25
 49
1.25
 49
-1.25
  0
LTYPE
  2
PHANTOM2
 70
    64
  3
--------  -  -  --------  -  -  
 72
    65
 73
     6
 40
20.0
 49
10.0
 49
-2.5
 49
1.25
 49
-2.5
 49
1.25
 49
-2.5
  0
LTYPE
  2
DOT
 70
    64
  3
-   -   -   -   -   -   -   -   
 72
    65
 73
     2
 40
2.5
 49
0.625
 49
-1.875
  0
LTYPE
  2
DUMMY
 70
    64
  3
â_â~ü[
 72
    65
 73
     0
 40
0.0
  0
LTYPE
  2
RAND1
 70
    64
  3
âëâôâ_âÇÉ³1
 72
    65
 73
     4
 40
10.0
 49
1.0
 49
-2.0
 49
3.0
 49
-4.0
  0
LTYPE
  2
RAND2
 70
    64
  3
âëâôâ_âÇÉ³2
 72
    65
 73
     4
 40
14.0
 49
2.0
 49
-3.0
 49
4.0
 49
-5.0
  0
LTYPE
  2
RAND3
 70
    64
  3
âëâôâ_âÇÉ³3
 72
    65
 73
     4
 40
18.0
 49
3.0
 49
-4.0
 49
5.0
 49
-6.0
  0
LTYPE
  2
RAND4
 70
    64
  3
âëâôâ_âÇÉ³4
 72
    65
 73
     4
 40
22.0
 49
4.0
 49
-5.0
 49
6.0
 49
-7.0
  0
LTYPE
  2
RAND5
 70
    64
  3
âëâôâ_âÇÉ³5
 72
    65
 73
     4
 40
26.0
 49
5.0
 49
-6.0
 49
7.0
 49
-8.0
  0
LTYPE
  2
LONG1
 70
    64
  3
----------  --  ----------  --  
 72
    65
 73
     4
 40
40.0
 49
32.5
 49
-2.5
 49
2.5
 49
-2.5
  0
LTYPE
  2
LONG2
 70
    64
  3
--------  -  -  --------  -  -  
 72
    65
 73
     6
 40
40.0
 49
30.0
 49
-2.5
 49
1.25
 49
-2.5
 49
1.25
 49
-2.5
  0
LTYPE
  2
LONG3
 70
    64
  3
+++++++++++++++..+++++++++++++++
 72
    65
 73
     2
 40
40.0
 49
37.5
 49
-2.5
  0
LTYPE
  2
LONG4
 70
    64
  3
+++++++++++++++..+++++++++++++++
 72
    65
 73
     2
 40
80.0
 49
75.0
 49
-5.0
  0
LTYPE
  2
LONG5
 70
    64
  3
----------  --  ----------  --  
 72
    65
 73
     4
 40
60.0
 49
37.5
 49
-7.5
 49
7.5
 49
-7.5
  0
LTYPE
  2
dashed
 70
   64
  3
-------   -------------   ------
 72
   65
 73
    2
 40
7.5
 49
6
 49
-1.5
  0
LTYPE
  2
dashed_spaced
 70
   64
  3
----        --------        ----
 72
   65
 73
    2
 40
12
 49
6
 49
-6
  0
LTYPE
  2
long_dashed_dotted
 70
   64
  3
------------- --- --------------
 72
   65
 73
    4
 40
15.25
 49
12
 49
-1.5
 49
0.25
 49
-1.5
  0
LTYPE
  2
long_dashed_double-dotted
 70
   64
  3
----------- --- --- ------------
 72
   65
 73
    6
 40
17
 49
12
 49
-1.5
 49
0.25
 49
-1.5
 49
0.25
 49
-1.5
  0
LTYPE
  2
long_dashed_triplicate-dotted
 70
   64
  3
--------- --- --- --- ----------
 72
   65
 73
    8
 40
18.75
 49
12
 49
-1.5
 49
0.25
 49
-1.5
 49
0.25
 49
-1.5
 49
0.25
 49
-1.5
  0
LTYPE
  2
dotted
 70
   64
  3
   -       -       -       -    
 72
   65
 73
    2
 40
1.75
 49
0.25
 49
-1.5
  0
LTYPE
  2
chain
 70
   64
  3
-------------- -- --------------
 72
   65
 73
    4
 40
18.5
 49
12
 49
-1.5
 49
3.5
 49
-1.5
  0
LTYPE
  2
chain_double_dash
 70
   64
  3
------------ -- -- -------------
 72
   65
 73
    6
 40
23.5
 49
12
 49
-1.5
 49
3.5
 49
-1.5
 49
3.5
 49
-1.5
  0
LTYPE
  2
dashed_dotted
 70
   64
  3
-----------     -     ----------
 72
   65
 73
    4
 40
9.25
 49
6
 49
-1.5
 49
0.25
 49
-1.5
  0
LTYPE
  2
double-dashed_dotted
 70
   64
  3
------   -----------   -   -----
 72
   65
 73
    6
 40
16.75
 49
6
 49
-1.5
 49
6
 49
-1.5
 49
0.25
 49
-1.5
  0
LTYPE
  2
dashed_double-dotted
 70
   64
  3
---------    -    -    ---------
 72
   65
 73
    6
 40
11
 49
6
 49
-1.5
 49
0.25
 49
-1.5
 49
0.25
 49
-1.5
  0
LTYPE
  2
double-dashed_double-dotted
 70
   64
  3
-----   ---------   -   -   ----
 72
   65
 73
    8
 40
18.5
 49
6
 49
-1.5
 49
6
 49
-1.5
 49
0.25
 49
-1.5
 49
0.25
 49
-1.5
  0
LTYPE
  2
dashed_triplicate-dotted
 70
   64
  3
-------    -    -    -    ------
 72
   65
 73
    8
 40
12.75
 49
6
 49
-1.5
 49
0.25
 49
-1.5
 49
0.25
 49
-1.5
 49
0.25
 49
-1.5
  0
LTYPE
  2
double-dashed_triplicate-dotted
 70
   64
  3
-----  ---------  -  -  -  -----
 72
   65
 73
   10
 40
20.25
 49
6
 49
-1.5
 49
6
 49
-1.5
 49
0.25
 49
-1.5
 49
0.25
 49
-1.5
 49
0.25
 49
-1.5
  0
LTYPE
  2
undefined
 70
   64
  3
--------------------------------
 72
   65
 73
    0
 40
0
  0
ENDTAB
  0
TABLE
  2
STYLE
  5
3
100
AcDbSymbolTable
 70
     1
  0
STYLE
  5
10
100
AcDbSymbolTableRecord
100
AcDbTextStyleTableRecord
  2
STANDARD
 70
     0
 40
0.0
 41
1.0
 50
0.0
 71
     0
 42
0.2
  3
txt
  4
bigfont.shx
  0
STYLE
  5
26
100
AcDbSymbolTableRecord
100
AcDbTextStyleTableRecord
  2
TATEGAKI
 70
    68
 40
0.0
 41
1.0
 50
0.0
 71
     0
 42
1.0
  3
txt
  4
bigfont.shx
  0
ENDTAB
  0
TABLE
  2
LAYER
 70
    2
  0
LAYER
  2
_0-2____C_ä___1
 70
   64
 62
    7
  6
CONTINUOUS
  0
LAYER
  2
ADD_LINE
 70
   64
 62
    7
  6
CONTINUOUS
  0
ENDTAB
  0
ENDSEC
  0
SECTION
  2
BLOCKS
  0
ENDSEC
  0
SECTION
  2
ENTITIES
  0
LINE
  8
_0-2____C_ä___1
  6
CONTINUOUS
 62
    7
 10
28.4604605
 20
25.280638
 11
28.392539499999998
 21
25.280735
  0
LINE
  8
_0-2____C_ä___1
  6
CONTINUOUS
 62
    7
 10
28.392539499999998
 20
25.280735
 11
28.2287985
 21
25.255434000000005
  0
LINE
  8
_0-2____C_ä___1
  6
CONTINUOUS
 62
    7
 10
28.2287985
 20
25.255434000000005
 11
28.029270500000003
 21
25.166346000000004
  0
LINE
  8
_0-2____C_ä___1
  6
CONTINUOUS
 62
    7
 10
28.029270500000003
 20
25.166346000000004
 11
27.853987500000002
 21
24.975083999999999
  0
LINE
  8
_0-2____C_ä___1
  6
CONTINUOUS
 62
    7
 10
27.853987500000002
 20
24.975083999999999
 11
27.762981500000002
 21
24.643259
  0
LINE
  8
_0-2____C_ä___1
  6
CONTINUOUS
 62
    7
 10
27.762981500000002
 20
24.643259
 11
27.7526625
 21
24.422557000000001
  0
LINE
  8
_0-2____C_ä___1
  6
CONTINUOUS
 62
    7
 10
27.7526625
 20
24.422557000000001
 11
27.747250500000003
 21
24.148132000000004
  0
LINE
  8
_0-2____C_ä___1
  6
CONTINUOUS
 62
    7
 10
27.747250500000003
 20
24.148132000000004
 11
27.7456885
 21
23.835730999999999
  0
LINE
  8
_0-2____C_ä___1
  6
CONTINUOUS
 62
    7
 10
27.7456885
 20
23.835730999999999
 11
27.746919500000004
 21
23.501103000000001
  0
LINE
  8
_0-2____C_ä___1
  6
CONTINUOUS
 62
    7
 10
27.746919500000004
 20
23.501103000000001
 11
27.749886500000002
 21
23.159997000000004
  0
LINE
  8
_0-2____C_ä___1
  6
CONTINUOUS
 62
    7
 10
27.749886500000002
 20
23.159997000000004
 11
27.753531499999998
 21
22.828161999999999
  0
LINE
  8
_0-2____C_ä___1
  6
CONTINUOUS
 62
    7
 10
27.753531499999998
 20
22.828161999999999
 11
27.756797500000001
 21
22.521345
  0
LINE
  8
_0-2____C_ä___1
  6
CONTINUOUS
 62
    7
 10
27.756797500000001
 20
22.521345
 11
27.758627500000003
 21
22.255296000000001
  0
LINE
  8
_0-2____C_ä___1
  6
CONTINUOUS
 62
    7
 10
27.758627500000003
 20
22.255296000000001
 11
27.7579645
 21
22.045762
  0
LINE
  8
_0-2____C_ä___1
  6
CONTINUOUS
 62
    7
 10
27.7579645
 20
22.045762
 11
27.7537515
 21
21.908493
  0
LINE
  8
_0-2____C_ä___1
  6
CONTINUOUS
 62
    7
 10
27.7537515
 20
21.908493
 11
27.744930499999999
 21
21.859237000000004
  0
LINE
  8
_0-2____C_ä___1
  6
CONTINUOUS
 62
    7
 10
27.744930499999999
 20
21.859237000000004
 11
27.811738500000004
 21
21.808672000000001
  0
LINE
  8
_0-2____C_ä___1
  6
CONTINUOUS
 62
    7
 10
27.811738500000004
 20
21.808672000000001
 11
28.066945499999999
 21
21.719360000000002
  0
LINE
  8
_0-2____C_ä___1
  6
CONTINUOUS
 62
    7
 10
28.066945499999999
 20
21.719360000000002
 11
28.466489500000002
 21
21.684884
  0
LINE
  8
_0-2____C_ä___1
  6
CONTINUOUS
 62
    7
 10
28.466489500000002
 20
21.684884
 11
28.844887499999999
 21
21.722725000000001
  0
LINE
  8
_0-2____C_ä___1
  6
CONTINUOUS
 62
    7
 10
28.844887499999999
 20
21.722725000000001
 11
29.072267499999999
 21
21.779274000000001
  0
LINE
  8
_0-2____C_ä___1
  6
CONTINUOUS
 62
    7
 10
29.072267499999999
 20
21.779274000000001
 11
29.157991499999998
 21
21.841154000000003
  0
LINE
  8
_0-2____C_ä___1
  6
CONTINUOUS
 62
    7
 10
29.157991499999998
 20
21.841154000000003
 11
29.162620500000003
 21
21.920546000000002
  0
LINE
  8
_0-2____C_ä___1
  6
CONTINUOUS
 62
    7
 10
29.162620500000003
 20
21.920546000000002
 11
29.166678500000003
 21
22.109441000000004
  0
LINE
  8
_0-2____C_ä___1
  6
CONTINUOUS
 62
    7
 10
29.166678500000003
 20
22.109441000000004
 11
29.1701935
 21
22.383173000000003
  0
LINE
  8
_0-2____C_ä___1
  6
CONTINUOUS
 62
    7
 10
29.1701935
 20
22.383173000000003
 11
29.173192499999999
 21
22.717077000000003
  0
LINE
  8
_0-2____C_ä___1
  6
CONTINUOUS
 62
    7
 10
29.173192499999999
 20
22.717077000000003
 11
29.1757025
 21
23.086486000000004
  0
LINE
  8
_0-2____C_ä___1
  6
CONTINUOUS
 62
    7
 10
29.1757025
 20
23.086486000000004
 11
29.177752499999997
 21
23.466736000000001
  0
LINE
  8
_0-2____C_ä___1
  6
CONTINUOUS
 62
    7
 10
29.177752499999997
 20
23.466736000000001
 11
29.179367500000001
 21
23.833161000000004
  0
LINE
  8
_0-2____C_ä___1
  6
CONTINUOUS
 62
    7
 10
29.179367500000001
 20
23.833161000000004
 11
29.180576500000001
 21
24.161094000000006
  0
LINE
  8
_0-2____C_ä___1
  6
CONTINUOUS
 62
    7
 10
29.180576500000001
 20
24.161094000000006
 11
29.1814055
 21
24.425871000000001
  0
LINE
  8
_0-2____C_ä___1
  6
CONTINUOUS
 62
    7
 10
29.1814055
 20
24.425871000000001
 11
29.181883499999998
 21
24.602824999999999
  0
LINE
  8
_0-2____C_ä___1
  6
CONTINUOUS
 62
    7
 10
29.181883499999998
 20
24.602824999999999
 11
29.182036499999999
 21
24.667291000000006
  0
LINE
  8
_0-2____C_ä___1
  6
CONTINUOUS
 62
    7
 10
29.182036499999999
 20
24.667291000000006
 11
29.1722225
 21
24.734545000000001
  0
LINE
  8
_0-2____C_ä___1
  6
CONTINUOUS
 62
    7
 10
29.1722225
 20
24.734545000000001
 11
29.123731499999998
 21
24.893588000000001
  0
LINE
  8
_0-2____C_ä___1
  6
CONTINUOUS
 62
    7
 10
29.123731499999998
 20
24.893588000000001
 11
29.007990500000002
 21
25.080338000000001
  0
LINE
  8
_0-2____C_ä___1
  6
CONTINUOUS
 62
    7
 10
29.007990500000002
 20
25.080338000000001
 11
28.796424500000001
 21
25.230715000000004
  0
LINE
  8
_0-2____C_ä___1
  6
CONTINUOUS
 62
    7
 10
28.796424500000001
 20
25.230715000000004
 11
28.4604605
 21
25.280638
  0
LINE
  8
_0-2____C_ä___1
  6
CONTINUOUS
 62
    7
 10
27.756938500000004
 20
24.571102
 11
27.815314499999999
 21
24.549363
  0
LINE
  8
_0-2____C_ä___1
  6
CONTINUOUS
 62
    7
 10
27.815314499999999
 20
24.549363
 11
27.975410499999999
 21
24.501404000000004
  0
LINE
  8
_0-2____C_ä___1
  6
CONTINUOUS
 62
    7
 10
27.975410499999999
 20
24.501404000000004
 11
28.214677500000001
 21
24.453112000000004
  0
LINE
  8
_0-2____C_ä___1
  6
CONTINUOUS
 62
    7
 10
28.214677500000001
 20
24.453112000000004
 11
28.510569499999999
 21
24.430374
  0
LINE
  8
_0-2____C_ä___1
  6
CONTINUOUS
 62
    7
 10
28.510569499999999
 20
24.430374
 11
28.840538500000005
 21
24.459077000000004
  0
LINE
  8
_0-2____C_ä___1
  6
CONTINUOUS
 62
    7
 10
28.840538500000005
 20
24.459077000000004
 11
29.182036499999999
 21
24.565108000000006
  0
LINE
  8
_0-2____C_ä___1
  6
CONTINUOUS
 62
    7
 10
27.756938500000004
 20
24.438881000000006
 11
27.848036500000003
 21
24.368497000000005
  0
LINE
  8
_0-2____C_ä___1
  6
CONTINUOUS
 62
    7
 10
27.848036500000003
 20
24.368497000000005
 11
28.036686499999998
 21
24.196550999999999
  0
LINE
  8
_0-2____C_ä___1
  6
CONTINUOUS
 62
    7
 10
28.036686499999998
 20
24.196550999999999
 11
28.195929500000002
 21
23.981853000000001
  0
LINE
  8
_0-2____C_ä___1
  6
CONTINUOUS
 62
    7
 10
28.195929500000002
 20
23.981853000000001
 11
28.368931499999999
 21
23.858036000000002
  0
LINE
  8
_0-2____C_ä___1
  6
CONTINUOUS
 62
    7
 10
28.368931499999999
 20
23.858036000000002
 11
28.598093500000001
 21
23.881205000000001
  0
LINE
  8
_0-2____C_ä___1
  6
CONTINUOUS
 62
    7
 10
28.598093500000001
 20
23.881205000000001
 11
28.755086500000001
 21
23.993928
  0
LINE
  8
_0-2____C_ä___1
  6
CONTINUOUS
 62
    7
 10
28.755086500000001
 20
23.993928
 11
28.873563500000003
 21
24.146671999999999
  0
LINE
  8
_0-2____C_ä___1
  6
CONTINUOUS
 62
    7
 10
28.873563500000003
 20
24.146671999999999
 11
29.033473499999999
 21
24.306128000000001
  0
LINE
  8
_0-2____C_ä___1
  6
CONTINUOUS
 62
    7
 10
29.033473499999999
 20
24.306128000000001
 11
29.176043499999999
 21
24.438881000000006
  0
LINE
  8
_0-2____C_ä___1
  6
CONTINUOUS
 62
    7
 10
28.490502499999998
 20
23.753323000000002
 11
28.285851500000003
 21
23.746198
  0
LINE
  8
_0-2____C_ä___1
  6
CONTINUOUS
 62
    7
 10
28.285851500000003
 20
23.746198
 11
27.919528500000002
 21
23.760476000000001
  0
LINE
  8
_0-2____C_ä___1
  6
CONTINUOUS
 62
    7
 10
27.919528500000002
 20
23.760476000000001
 11
27.762981500000002
 21
23.849631000000002
  0
LINE
  8
_0-2____C_ä___1
  6
CONTINUOUS
 62
    7
 10
27.762981500000002
 20
23.849631000000002
 11
27.919314500000002
 21
23.936015000000001
  0
LINE
  8
_0-2____C_ä___1
  6
CONTINUOUS
 62
    7
 10
27.919314500000002
 20
23.936015000000001
 11
28.1237505
 21
23.955584000000002
  0
LINE
  8
_0-2____C_ä___1
  6
CONTINUOUS
 62
    7
 10
28.1237505
 20
23.955584000000002
 11
28.195929500000002
 21
23.981853000000001
  0
LINE
  8
_0-2____C_ä___1
  6
CONTINUOUS
 62
    7
 10
28.458840500000004
 20
23.753323000000002
 11
28.655056500000001
 21
23.746198
  0
LINE
  8
_0-2____C_ä___1
  6
CONTINUOUS
 62
    7
 10
28.655056500000001
 20
23.746198
 11
29.006286500000002
 21
23.760476000000001
  0
LINE
  8
_0-2____C_ä___1
  6
CONTINUOUS
 62
    7
 10
29.006286500000002
 20
23.760476000000001
 11
29.1564075
 21
23.849631000000002
  0
LINE
  8
_0-2____C_ä___1
  6
CONTINUOUS
 62
    7
 10
29.1564075
 20
23.849631000000002
 11
29.006507499999998
 21
23.936015000000001
  0
LINE
  8
_0-2____C_ä___1
  6
CONTINUOUS
 62
    7
 10
29.006507499999998
 20
23.936015000000001
 11
28.810475500000003
 21
23.955584000000002
  0
LINE
  8
_0-2____C_ä___1
  6
CONTINUOUS
 62
    7
 10
28.810475500000003
 20
23.955584000000002
 11
28.7412715
 21
23.981853000000001
  0
LINE
  8
_0-2____C_ä___1
  6
CONTINUOUS
 62
    7
 10
27.7509595
 20
23.705211000000006
 11
27.833264500000002
 21
23.678474999999999
  0
LINE
  8
_0-2____C_ä___1
  6
CONTINUOUS
 62
    7
 10
27.833264500000002
 20
23.678474999999999
 11
28.054396500000003
 21
23.624043
  0
LINE
  8
_0-2____C_ä___1
  6
CONTINUOUS
 62
    7
 10
28.054396500000003
 20
23.624043
 11
28.375678499999999
 21
23.580582
  0
LINE
  8
_0-2____C_ä___1
  6
CONTINUOUS
 62
    7
 10
28.375678499999999
 20
23.580582
 11
28.758433500000002
 21
23.586756000000005
  0
LINE
  8
_0-2____C_ä___1
  6
CONTINUOUS
 62
    7
 10
28.758433500000002
 20
23.586756000000005
 11
29.163985500000003
 21
23.681232000000001
  0
LINE
  8
_0-2____C_ä___1
  6
CONTINUOUS
 62
    7
 10
28.576940500000003
 20
22.129886000000003
 11
28.574786500000002
 21
22.121926000000002
  0
LINE
  8
_0-2____C_ä___1
  6
CONTINUOUS
 62
    7
 10
28.574786500000002
 20
22.121926000000002
 11
28.569120499999997
 21
22.116274000000004
  0
LINE
  8
_0-2____C_ä___1
  6
CONTINUOUS
 62
    7
 10
28.569120499999997
 20
22.116274000000004
 11
28.5611435
 21
22.114123000000003
  0
LINE
  8
_0-2____C_ä___1
  6
CONTINUOUS
 62
    7
 10
28.5611435
 20
22.114123000000003
 11
28.553200500000003
 21
22.116274000000004
  0
LINE
  8
_0-2____C_ä___1
  6
CONTINUOUS
 62
    7
 10
28.553200500000003
 20
22.116274000000004
 11
28.547541500000001
 21
22.121926000000002
  0
LINE
  8
_0-2____C_ä___1
  6
CONTINUOUS
 62
    7
 10
28.547541500000001
 20
22.121926000000002
 11
28.545384500000001
 21
22.129886000000003
  0
LINE
  8
_0-2____C_ä___1
  6
CONTINUOUS
 62
    7
 10
28.545384500000001
 20
22.129886000000003
 11
28.547541500000001
 21
22.137815000000003
  0
LINE
  8
_0-2____C_ä___1
  6
CONTINUOUS
 62
    7
 10
28.547541500000001
 20
22.137815000000003
 11
28.553200500000003
 21
22.143483000000003
  0
LINE
  8
_0-2____C_ä___1
  6
CONTINUOUS
 62
    7
 10
28.553200500000003
 20
22.143483000000003
 11
28.5611435
 21
22.145648000000001
  0
LINE
  8
_0-2____C_ä___1
  6
CONTINUOUS
 62
    7
 10
28.5611435
 20
22.145648000000001
 11
28.569120499999997
 21
22.143483000000003
  0
LINE
  8
_0-2____C_ä___1
  6
CONTINUOUS
 62
    7
 10
28.569120499999997
 20
22.143483000000003
 11
28.574786500000002
 21
22.137815000000003
  0
LINE
  8
_0-2____C_ä___1
  6
CONTINUOUS
 62
    7
 10
28.574786500000002
 20
22.137815000000003
 11
28.576940500000003
 21
22.129886000000003
  0
LINE
  8
_0-2____C_ä___1
  6
CONTINUOUS
 62
    7
 10
28.650304500000001
 20
22.105410000000003
 11
28.648144500000001
 21
22.097449000000001
  0
LINE
  8
_0-2____C_ä___1
  6
CONTINUOUS
 62
    7
 10
28.648144500000001
 20
22.097449000000001
 11
28.642467499999999
 21
22.091797
  0
LINE
  8
_0-2____C_ä___1
  6
CONTINUOUS
 62
    7
 10
28.642467499999999
 20
22.091797
 11
28.634475500000004
 21
22.089648
  0
LINE
  8
_0-2____C_ä___1
  6
CONTINUOUS
 62
    7
 10
28.634475500000004
 20
22.089648
 11
28.6265225
 21
22.091797
  0
LINE
  8
_0-2____C_ä___1
  6
CONTINUOUS
 62
    7
 10
28.6265225
 20
22.091797
 11
28.620866500000002
 21
22.097449000000001
  0
LINE
  8
_0-2____C_ä___1
  6
CONTINUOUS
 62
    7
 10
28.620866500000002
 20
22.097449000000001
 11
28.618713500000002
 21
22.105410000000003
  0
LINE
  8
_0-2____C_ä___1
  6
CONTINUOUS
 62
    7
 10
28.618713500000002
 20
22.105410000000003
 11
28.620866500000002
 21
22.113369000000002
  0
LINE
  8
_0-2____C_ä___1
  6
CONTINUOUS
 62
    7
 10
28.620866500000002
 20
22.113369000000002
 11
28.6265225
 21
22.119022000000001
  0
LINE
  8
_0-2____C_ä___1
  6
CONTINUOUS
 62
    7
 10
28.6265225
 20
22.119022000000001
 11
28.634475500000004
 21
22.121172000000001
  0
LINE
  8
_0-2____C_ä___1
  6
CONTINUOUS
 62
    7
 10
28.634475500000004
 20
22.121172000000001
 11
28.642467499999999
 21
22.119022000000001
  0
LINE
  8
_0-2____C_ä___1
  6
CONTINUOUS
 62
    7
 10
28.642467499999999
 20
22.119022000000001
 11
28.648144500000001
 21
22.113369000000002
  0
LINE
  8
_0-2____C_ä___1
  6
CONTINUOUS
 62
    7
 10
28.648144500000001
 20
22.113369000000002
 11
28.650304500000001
 21
22.105410000000003
  0
POINT
  8
_0-2____C_ä___1
 62
    7
 10
27.824598500000004
 20
21.914465000000003
  0
POINT
  8
_0-2____C_ä___1
 62
    7
 10
29.099356499999999
 20
22.076919000000004
  0
POINT
  8
_0-2____C_ä___1
 62
    7
 10
27.866698500000002
 20
21.926540000000003
  0
LINE
  8
_0-2____C_ä___1
  6
CONTINUOUS
 62
    7
 10
27.752458500000003
 20
21.938613000000004
 11
27.752458500000003
 21
21.535725000000003
  0
LINE
  8
_0-2____C_ä___1
  6
CONTINUOUS
 62
    7
 10
27.752458500000003
 20
21.535725000000003
 11
27.799892499999999
 21
21.509221
  0
LINE
  8
_0-2____C_ä___1
  6
CONTINUOUS
 62
    7
 10
27.799892499999999
 20
21.509221
 11
27.935513500000003
 21
21.449973
  0
LINE
  8
_0-2____C_ä___1
  6
CONTINUOUS
 62
    7
 10
27.935513500000003
 20
21.449973
 11
28.149299500000001
 21
21.388384000000002
  0
LINE
  8
_0-2____C_ä___1
  6
CONTINUOUS
 62
    7
 10
28.149299500000001
 20
21.388384000000002
 11
28.431229500000001
 21
21.354851
  0
LINE
  8
_0-2____C_ä___1
  6
CONTINUOUS
 62
    7
 10
28.431229500000001
 20
21.354851
 11
28.771283499999999
 21
21.379776
  0
LINE
  8
_0-2____C_ä___1
  6
CONTINUOUS
 62
    7
 10
28.771283499999999
 20
21.379776
 11
29.159437500000003
 21
21.493558000000004
  0
LINE
  8
_0-2____C_ä___1
  6
CONTINUOUS
 62
    7
 10
29.159437500000003
 20
21.493558000000004
 11
29.165502500000002
 21
21.932499000000004
  0
LINE
  8
_0-2____C_ä___1
  6
CONTINUOUS
 62
    7
 10
27.8426355
 20
21.487599000000003
 11
27.8426355
 21
21.132856000000004
  0
LINE
  8
_0-2____C_ä___1
  6
CONTINUOUS
 62
    7
 10
27.8426355
 20
21.132856000000004
 11
27.923547500000002
 21
21.104717000000001
  0
LINE
  8
_0-2____C_ä___1
  6
CONTINUOUS
 62
    7
 10
27.923547500000002
 20
21.104717000000001
 11
28.134918499999998
 21
21.049160000000001
  0
LINE
  8
_0-2____C_ä___1
  6
CONTINUOUS
 62
    7
 10
28.134918499999998
 20
21.049160000000001
 11
28.429699499999998
 21
21.009478000000001
  0
LINE
  8
_0-2____C_ä___1
  6
CONTINUOUS
 62
    7
 10
28.429699499999998
 20
21.009478000000001
 11
28.760844500000005
 21
21.028963000000005
  0
LINE
  8
_0-2____C_ä___1
  6
CONTINUOUS
 62
    7
 10
28.760844500000005
 20
21.028963000000005
 11
29.081304500000002
 21
21.150908000000001
  0
LINE
  8
_0-2____C_ä___1
  6
CONTINUOUS
 62
    7
 10
29.081304500000002
 20
21.150908000000001
 11
29.081304500000002
 21
21.463568000000002
  0
LINE
  8
_0-2____C_ä___1
  6
CONTINUOUS
 62
    7
 10
28.149299500000001
 20
21.054617000000004
 11
28.492069499999999
 21
16.845564000000003
  0
LINE
  8
_0-2____C_ä___1
  6
CONTINUOUS
 62
    7
 10
28.492069499999999
 20
16.845564000000003
 11
28.582246499999997
 21
16.719265000000004
  0
LINE
  8
_0-2____C_ä___1
  6
CONTINUOUS
 62
    7
 10
28.582246499999997
 20
16.719265000000004
 11
28.636352500000001
 21
16.845564000000003
  0
LINE
  8
_0-2____C_ä___1
  6
CONTINUOUS
 62
    7
 10
28.636352500000001
 20
16.845564000000003
 11
28.876872500000005
 21
21.060646000000002
  0
LINE
  8
_0-2____C_ä___1
  6
CONTINUOUS
 62
    7
 10
28.546174500000003
 20
21.012555000000003
 11
28.588240500000001
 21
16.725192
  0
LINE
  8
_0-2____C_ä___1
  6
CONTINUOUS
 62
    7
 10
29.911159499999997
 20
18.222504000000001
 11
29.899411499999999
 21
18.225348
  0
LINE
  8
_0-2____C_ä___1
  6
CONTINUOUS
 62
    7
 10
29.899411499999999
 20
18.225348
 11
29.865428500000004
 21
18.238425000000003
  0
LINE
  8
_0-2____C_ä___1
  6
CONTINUOUS
 62
    7
 10
29.865428500000004
 20
18.238425000000003
 11
29.811097500000002
 21
18.268548000000003
  0
LINE
  8
_0-2____C_ä___1
  6
CONTINUOUS
 62
    7
 10
29.811097500000002
 20
18.268548000000003
 11
29.738307499999998
 21
18.322532000000002
  0
LINE
  8
_0-2____C_ä___1
  6
CONTINUOUS
 62
    7
 10
29.738307499999998
 20
18.322532000000002
 11
29.648948500000003
 21
18.407192000000002
  0
LINE
  8
_0-2____C_ä___1
  6
CONTINUOUS
 62
    7
 10
29.648948500000003
 20
18.407192000000002
 11
29.544907500000001
 21
18.529343000000001
  0
LINE
  8
_0-2____C_ä___1
  6
CONTINUOUS
 62
    7
 10
29.544907500000001
 20
18.529343000000001
 11
29.428074500000005
 21
18.695798
  0
LINE
  8
_0-2____C_ä___1
  6
CONTINUOUS
 62
    7
 10
29.428074500000005
 20
18.695798
 11
29.300337500000001
 21
18.913374000000001
  0
LINE
  8
_0-2____C_ä___1
  6
CONTINUOUS
 62
    7
 10
29.300337500000001
 20
18.913374000000001
 11
29.163584500000002
 21
19.188883000000001
  0
LINE
  8
_0-2____C_ä___1
  6
CONTINUOUS
 62
    7
 10
29.163584500000002
 20
19.188883000000001
 11
29.019705500000001
 21
19.529142000000004
  0
LINE
  8
_0-2____C_ä___1
  6
CONTINUOUS
 62
    7
 10
29.019705500000001
 20
19.529142000000004
 11
28.870588499999997
 21
19.940964000000005
  0
LINE
  8
_0-2____C_ä___1
  6
CONTINUOUS
 62
    7
 10
28.870588499999997
 20
19.940964000000005
 11
28.718121500000002
 21
20.431165
  0
LINE
  8
_0-2____C_ä___1
  6
CONTINUOUS
 62
    7
 10
28.718121500000002
 20
20.431165
 11
28.564194500000003
 21
21.006558000000002
  0
LINE
  8
_0-2____C_ä___1
  6
CONTINUOUS
 62
    7
 10
28.558165499999998
 20
20.669834000000002
 11
28.5656505
 21
20.631586000000002
  0
LINE
  8
_0-2____C_ä___1
  6
CONTINUOUS
 62
    7
 10
28.5656505
 20
20.631586000000002
 11
28.587576500000001
 21
20.523555000000002
  0
LINE
  8
_0-2____C_ä___1
  6
CONTINUOUS
 62
    7
 10
28.587576500000001
 20
20.523555000000002
 11
28.623154499999998
 21
20.355810000000002
  0
LINE
  8
_0-2____C_ä___1
  6
CONTINUOUS
 62
    7
 10
28.623154499999998
 20
20.355810000000002
 11
28.671591500000002
 21
20.138422000000002
  0
LINE
  8
_0-2____C_ä___1
  6
CONTINUOUS
 62
    7
 10
28.671591500000002
 20
20.138422000000002
 11
28.732097499999998
 21
19.881460000000004
  0
LINE
  8
_0-2____C_ä___1
  6
CONTINUOUS
 62
    7
 10
28.732097499999998
 20
19.881460000000004
 11
28.803881500000003
 21
19.594993000000002
  0
LINE
  8
_0-2____C_ä___1
  6
CONTINUOUS
 62
    7
 10
28.803881500000003
 20
19.594993000000002
 11
28.886152499999998
 21
19.289092
  0
LINE
  8
_0-2____C_ä___1
  6
CONTINUOUS
 62
    7
 10
28.886152499999998
 20
19.289092
 11
28.978119499999998
 21
18.973827
  0
LINE
  8
_0-2____C_ä___1
  6
CONTINUOUS
 62
    7
 10
28.978119499999998
 20
18.973827
 11
29.0789905
 21
18.659265999999999
  0
LINE
  8
_0-2____C_ä___1
  6
CONTINUOUS
 62
    7
 10
29.0789905
 20
18.659265999999999
 11
29.187976499999998
 21
18.355481000000001
  0
LINE
  8
_0-2____C_ä___1
  6
CONTINUOUS
 62
    7
 10
29.187976499999998
 20
18.355481000000001
 11
29.304284500000001
 21
18.07254
  0
LINE
  8
_0-2____C_ä___1
  6
CONTINUOUS
 62
    7
 10
29.304284500000001
 20
18.07254
 11
29.427124499999998
 21
17.820513000000002
  0
LINE
  8
_0-2____C_ä___1
  6
CONTINUOUS
 62
    7
 10
29.427124499999998
 20
17.820513000000002
 11
29.555705500000002
 21
17.609469999999998
  0
LINE
  8
_0-2____C_ä___1
  6
CONTINUOUS
 62
    7
 10
29.555705500000002
 20
17.609469999999998
 11
29.6892365
 21
17.449481000000002
  0
LINE
  8
_0-2____C_ä___1
  6
CONTINUOUS
 62
    7
 10
29.6892365
 20
17.449481000000002
 11
29.826926500000003
 21
17.350616000000002
  0
LINE
  8
_0-2____C_ä___1
  6
CONTINUOUS
 62
    7
 10
29.8732285
 20
18.379116
 11
29.9110215
 21
18.308286000000003
  0
LINE
  8
_0-2____C_ä___1
  6
CONTINUOUS
 62
    7
 10
29.9110215
 20
18.308286000000003
 11
29.901616500000003
 21
18.242002000000003
  0
LINE
  8
_0-2____C_ä___1
  6
CONTINUOUS
 62
    7
 10
29.901616500000003
 20
18.242002000000003
 11
29.9064035
 21
18.175789000000002
  0
LINE
  8
_0-2____C_ä___1
  6
CONTINUOUS
 62
    7
 10
29.9064035
 20
18.175789000000002
 11
29.896896499999997
 21
18.164006000000001
  0
LINE
  8
_0-2____C_ä___1
  6
CONTINUOUS
 62
    7
 10
29.896896499999997
 20
18.164006000000001
 11
29.894487499999997
 21
18.045769000000004
  0
LINE
  8
_0-2____C_ä___1
  6
CONTINUOUS
 62
    7
 10
29.894487499999997
 20
18.045769000000004
 11
29.913466499999998
 21
18.041084000000001
  0
LINE
  8
_0-2____C_ä___1
  6
CONTINUOUS
 62
    7
 10
29.913466499999998
 20
18.041084000000001
 11
29.9465395
 21
18.041084000000001
  0
LINE
  8
_0-2____C_ä___1
  6
CONTINUOUS
 62
    7
 10
29.9465395
 20
18.041084000000001
 11
29.956015500000003
 21
18.064787000000003
  0
LINE
  8
_0-2____C_ä___1
  6
CONTINUOUS
 62
    7
 10
29.956015500000003
 20
18.064787000000003
 11
29.944232499999998
 21
18.090762000000002
  0
LINE
  8
_0-2____C_ä___1
  6
CONTINUOUS
 62
    7
 10
29.944232499999998
 20
18.090762000000002
 11
29.941822500000001
 21
18.128591
  0
LINE
  8
_0-2____C_ä___1
  6
CONTINUOUS
 62
    7
 10
29.941822500000001
 20
18.128591
 11
29.991501499999998
 21
18.213685000000002
  0
LINE
  8
_0-2____C_ä___1
  6
CONTINUOUS
 62
    7
 10
29.991501499999998
 20
18.213685000000002
 11
30.019854500000005
 21
18.211272000000005
  0
LINE
  8
_0-2____C_ä___1
  6
CONTINUOUS
 62
    7
 10
30.019854500000005
 20
18.211272000000005
 11
30.022161499999999
 21
18.090762000000002
  0
LINE
  8
_0-2____C_ä___1
  6
CONTINUOUS
 62
    7
 10
30.022161499999999
 20
18.090762000000002
 11
29.996253500000002
 21
18.088349000000001
  0
LINE
  8
_0-2____C_ä___1
  6
CONTINUOUS
 62
    7
 10
29.996253500000002
 20
18.088349000000001
 11
30.012791499999999
 21
18.050524000000003
  0
LINE
  8
_0-2____C_ä___1
  6
CONTINUOUS
 62
    7
 10
30.012791499999999
 20
18.050524000000003
 11
30.057647499999998
 21
18.078913
  0
LINE
  8
_0-2____C_ä___1
  6
CONTINUOUS
 62
    7
 10
30.057647499999998
 20
18.078913
 11
30.1167625
 21
18.09779
  0
LINE
  8
_0-2____C_ä___1
  6
CONTINUOUS
 62
    7
 10
30.1167625
 20
18.09779
 11
30.081315500000002
 21
18.149809999999999
  0
LINE
  8
_0-2____C_ä___1
  6
CONTINUOUS
 62
    7
 10
30.081315500000002
 20
18.149809999999999
 11
30.076594499999999
 21
18.192394000000004
  0
LINE
  8
_0-2____C_ä___1
  6
CONTINUOUS
 62
    7
 10
30.076594499999999
 20
18.192394000000004
 11
30.114419499999997
 21
18.192394000000004
  0
LINE
  8
_0-2____C_ä___1
  6
CONTINUOUS
 62
    7
 10
30.114419499999997
 20
18.192394000000004
 11
30.1167625
 21
18.130933000000002
  0
LINE
  8
_0-2____C_ä___1
  6
CONTINUOUS
 62
    7
 10
30.1167625
 20
18.130933000000002
 11
30.211366499999997
 21
18.121493000000001
  0
LINE
  8
_0-2____C_ä___1
  6
CONTINUOUS
 62
    7
 10
30.211366499999997
 20
18.121493000000001
 11
30.2633875
 21
18.154565999999999
  0
LINE
  8
_0-2____C_ä___1
  6
CONTINUOUS
 62
    7
 10
30.2633875
 20
18.154565999999999
 11
30.275170500000002
 21
18.220849000000001
  0
LINE
  8
_0-2____C_ä___1
  6
CONTINUOUS
 62
    7
 10
30.275170500000002
 20
18.220849000000001
 11
30.133300500000004
 21
18.374432000000002
  0
LINE
  8
_0-2____C_ä___1
  6
CONTINUOUS
 62
    7
 10
30.133300500000004
 20
18.374432000000002
 11
30.060056499999998
 21
18.372088999999999
  0
LINE
  8
_0-2____C_ä___1
  6
CONTINUOUS
 62
    7
 10
30.060056499999998
 20
18.372088999999999
 11
30.060056499999998
 21
18.400477000000002
  0
LINE
  8
_0-2____C_ä___1
  6
CONTINUOUS
 62
    7
 10
30.060056499999998
 20
18.400477000000002
 11
29.9110215
 21
18.400477000000002
  0
LINE
  8
_0-2____C_ä___1
  6
CONTINUOUS
 62
    7
 10
29.9110215
 20
18.400477000000002
 11
29.908749499999999
 21
18.379116
  0
LINE
  8
_0-2____C_ä___1
  6
CONTINUOUS
 62
    7
 10
29.908749499999999
 20
18.379116
 11
29.8732285
 21
18.379116
  0
LINE
  8
_0-2____C_ä___1
  6
CONTINUOUS
 62
    7
 10
29.979612499999998
 20
18.166349
 11
29.9773055
 21
18.137961000000001
  0
LINE
  8
_0-2____C_ä___1
  6
CONTINUOUS
 62
    7
 10
29.9773055
 20
18.137961000000001
 11
29.990947500000001
 21
18.139132
  0
LINE
  8
_0-2____C_ä___1
  6
CONTINUOUS
 62
    7
 10
29.990947500000001
 20
18.139132
 11
30.005622500000001
 21
18.140441000000003
  0
LINE
  8
_0-2____C_ä___1
  6
CONTINUOUS
 62
    7
 10
30.005622500000001
 20
18.140441000000003
 11
30.005622500000001
 21
18.159321000000002
  0
LINE
  8
_0-2____C_ä___1
  6
CONTINUOUS
 62
    7
 10
30.005622500000001
 20
18.159321000000002
 11
29.979612499999998
 21
18.166349
  0
LINE
  8
_0-2____C_ä___1
  6
CONTINUOUS
 62
    7
 10
29.991501499999998
 20
18.107230000000001
 11
29.989088499999998
 21
18.133343
  0
LINE
  8
_0-2____C_ä___1
  6
CONTINUOUS
 62
    7
 10
29.989088499999998
 20
18.133343
 11
30.100227500000003
 21
18.081255000000002
  0
LINE
  8
_0-2____C_ä___1
  6
CONTINUOUS
 62
    7
 10
30.100227500000003
 20
18.081255000000002
 11
30.097849500000002
 21
18.026888000000003
  0
LINE
  8
_0-2____C_ä___1
  6
CONTINUOUS
 62
    7
 10
30.097849500000002
 20
18.026888000000003
 11
30.0859995
 21
18.017452000000002
  0
LINE
  8
_0-2____C_ä___1
  6
CONTINUOUS
 62
    7
 10
30.0859995
 20
18.017452000000002
 11
30.0907205
 21
17.986720999999999
  0
LINE
  8
_0-2____C_ä___1
  6
CONTINUOUS
 62
    7
 10
30.0907205
 20
17.986720999999999
 11
30.055371500000003
 21
17.991406000000001
  0
LINE
  8
_0-2____C_ä___1
  6
CONTINUOUS
 62
    7
 10
30.055371500000003
 20
17.991406000000001
 11
30.052926500000002
 21
17.913340000000002
  0
LINE
  8
_0-2____C_ä___1
  6
CONTINUOUS
 62
    7
 10
30.052926500000002
 20
17.913340000000002
 11
30.038695500000003
 21
17.913340000000002
  0
LINE
  8
_0-2____C_ä___1
  6
CONTINUOUS
 62
    7
 10
30.038695500000003
 20
17.913340000000002
 11
30.0327725
 21
17.868417000000001
  0
LINE
  8
_0-2____C_ä___1
  6
CONTINUOUS
 62
    7
 10
30.0327725
 20
17.868417000000001
 11
30.029259500000002
 21
17.842509000000003
  0
LINE
  8
_0-2____C_ä___1
  6
CONTINUOUS
 62
    7
 10
30.029259500000002
 20
17.842509000000003
 11
30.003315499999999
 21
17.842509000000003
  0
LINE
  8
_0-2____C_ä___1
  6
CONTINUOUS
 62
    7
 10
30.003315499999999
 20
17.842509000000003
 11
30.005622500000001
 21
17.986720999999999
  0
LINE
  8
_0-2____C_ä___1
  6
CONTINUOUS
 62
    7
 10
30.005622500000001
 20
17.986720999999999
 11
29.982060500000003
 21
17.993815000000001
  0
LINE
  8
_0-2____C_ä___1
  6
CONTINUOUS
 62
    7
 10
29.982060500000003
 20
17.993815000000001
 11
29.9773055
 21
17.970116000000001
  0
LINE
  8
_0-2____C_ä___1
  6
CONTINUOUS
 62
    7
 10
29.9773055
 20
17.970116000000001
 11
29.9465395
 21
17.970116000000001
  0
LINE
  8
_0-2____C_ä___1
  6
CONTINUOUS
 62
    7
 10
29.9465395
 20
17.970116000000001
 11
29.941822500000001
 21
17.901627000000001
  0
LINE
  8
_0-2____C_ä___1
  6
CONTINUOUS
 62
    7
 10
29.941822500000001
 20
17.901627000000001
 11
29.9276275
 21
17.908655000000003
  0
LINE
  8
_0-2____C_ä___1
  6
CONTINUOUS
 62
    7
 10
29.9276275
 20
17.908655000000003
 11
29.934725500000003
 21
17.991406000000001
  0
LINE
  8
_0-2____C_ä___1
  6
CONTINUOUS
 62
    7
 10
29.934725500000003
 20
17.991406000000001
 11
29.9465395
 21
18.024546000000001
  0
LINE
  8
_0-2____C_ä___1
  6
CONTINUOUS
 62
    7
 10
29.9465395
 20
18.024546000000001
 11
29.9536725
 21
18.005669000000001
  0
LINE
  8
_0-2____C_ä___1
  6
CONTINUOUS
 62
    7
 10
29.9536725
 20
18.005669000000001
 11
29.956015500000003
 21
18.038742000000003
  0
LINE
  8
_0-2____C_ä___1
  6
CONTINUOUS
 62
    7
 10
29.956015500000003
 20
18.038742000000003
 11
29.915844499999999
 21
18.034057000000001
  0
LINE
  8
_0-2____C_ä___1
  6
CONTINUOUS
 62
    7
 10
29.915844499999999
 20
18.034057000000001
 11
29.9110215
 21
17.974868000000001
  0
LINE
  8
_0-2____C_ä___1
  6
CONTINUOUS
 62
    7
 10
29.9110215
 20
17.974868000000001
 11
29.9039945
 21
17.972525000000001
  0
LINE
  8
_0-2____C_ä___1
  6
CONTINUOUS
 62
    7
 10
29.9039945
 20
17.972525000000001
 11
29.9064035
 21
17.854291
  0
LINE
  8
_0-2____C_ä___1
  6
CONTINUOUS
 62
    7
 10
29.9064035
 20
17.854291
 11
29.918186500000004
 21
17.873239000000002
  0
LINE
  8
_0-2____C_ä___1
  6
CONTINUOUS
 62
    7
 10
29.918186500000004
 20
17.873239000000002
 11
29.948850499999999
 21
17.875582000000001
  0
LINE
  8
_0-2____C_ä___1
  6
CONTINUOUS
 62
    7
 10
29.948850499999999
 20
17.875582000000001
 11
29.956015500000003
 21
17.948893000000002
  0
LINE
  8
_0-2____C_ä___1
  6
CONTINUOUS
 62
    7
 10
29.956015500000003
 20
17.948893000000002
 11
29.967798500000001
 21
17.941795000000003
  0
LINE
  8
_0-2____C_ä___1
  6
CONTINUOUS
 62
    7
 10
29.967798500000001
 20
17.941795000000003
 11
29.965455500000004
 21
17.873239000000002
  0
LINE
  8
_0-2____C_ä___1
  6
CONTINUOUS
 62
    7
 10
29.965455500000004
 20
17.873239000000002
 11
29.955464500000001
 21
17.859872000000003
  0
LINE
  8
_0-2____C_ä___1
  6
CONTINUOUS
 62
    7
 10
29.955464500000001
 20
17.859872000000003
 11
29.951259499999999
 21
17.854291
  0
LINE
  8
_0-2____C_ä___1
  6
CONTINUOUS
 62
    7
 10
29.951259499999999
 20
17.854291
 11
29.913466499999998
 21
17.847193999999998
  0
LINE
  8
_0-2____C_ä___1
  6
CONTINUOUS
 62
    7
 10
29.913466499999998
 20
17.847193999999998
 11
29.918186500000004
 21
17.835344000000003
  0
LINE
  8
_0-2____C_ä___1
  6
CONTINUOUS
 62
    7
 10
29.918186500000004
 20
17.835344000000003
 11
29.958357500000002
 21
17.830655000000004
  0
LINE
  8
_0-2____C_ä___1
  6
CONTINUOUS
 62
    7
 10
29.958357500000002
 20
17.830655000000004
 11
29.984403500000003
 21
17.856634
  0
LINE
  8
_0-2____C_ä___1
  6
CONTINUOUS
 62
    7
 10
29.984403500000003
 20
17.856634
 11
29.986745500000001
 21
17.833068000000001
  0
LINE
  8
_0-2____C_ä___1
  6
CONTINUOUS
 62
    7
 10
29.986745500000001
 20
17.833068000000001
 11
30.038695500000003
 21
17.837753000000003
  0
LINE
  8
_0-2____C_ä___1
  6
CONTINUOUS
 62
    7
 10
30.038695500000003
 20
17.837753000000003
 11
30.052926500000002
 21
17.866141000000002
  0
LINE
  8
_0-2____C_ä___1
  6
CONTINUOUS
 62
    7
 10
30.052926500000002
 20
17.866141000000002
 11
30.033943499999999
 21
17.920504000000001
  0
LINE
  8
_0-2____C_ä___1
  6
CONTINUOUS
 62
    7
 10
29.821172500000003
 20
17.360193000000002
 11
29.9064035
 21
17.362469000000001
  0
LINE
  8
_0-2____C_ä___1
  6
CONTINUOUS
 62
    7
 10
29.9064035
 20
17.362469000000001
 11
29.9252845
 21
17.409805000000002
  0
LINE
  8
_0-2____C_ä___1
  6
CONTINUOUS
 62
    7
 10
29.9252845
 20
17.409805000000002
 11
29.9465395
 21
17.412147000000001
  0
LINE
  8
_0-2____C_ä___1
  6
CONTINUOUS
 62
    7
 10
29.9465395
 20
17.412147000000001
 11
29.958357500000002
 21
17.405116000000003
  0
LINE
  8
_0-2____C_ä___1
  6
CONTINUOUS
 62
    7
 10
29.982060500000003
 20
17.282198000000001
 11
29.989088499999998
 21
17.315271000000003
  0
LINE
  8
_0-2____C_ä___1
  6
CONTINUOUS
 62
    7
 10
29.989088499999998
 20
17.315271000000003
 11
30.003315499999999
 21
17.364878000000001
  0
LINE
  8
_0-2____C_ä___1
  6
CONTINUOUS
 62
    7
 10
30.003315499999999
 20
17.364878000000001
 11
30.0017675
 21
17.371768000000003
  0
LINE
  8
_0-2____C_ä___1
  6
CONTINUOUS
 62
    7
 10
30.0017675
 20
17.371768000000003
 11
29.986745500000001
 21
17.435847000000003
  0
LINE
  8
_0-2____C_ä___1
  6
CONTINUOUS
 62
    7
 10
29.986745500000001
 20
17.435847000000003
 11
30.003315499999999
 21
17.435847000000003
  0
LINE
  8
_0-2____C_ä___1
  6
CONTINUOUS
 62
    7
 10
30.003315499999999
 20
17.435847000000003
 11
30.000870499999998
 21
17.416970000000003
  0
LINE
  8
_0-2____C_ä___1
  6
CONTINUOUS
 62
    7
 10
30.000870499999998
 20
17.416970000000003
 11
30.000870499999998
 21
17.395679000000001
  0
LINE
  8
_0-2____C_ä___1
  6
CONTINUOUS
 62
    7
 10
30.000870499999998
 20
17.395679000000001
 11
29.993843499999997
 21
17.379141000000001
  0
LINE
  8
_0-2____C_ä___1
  6
CONTINUOUS
 62
    7
 10
29.993843499999997
 20
17.379141000000001
 11
29.982060500000003
 21
17.367291000000002
  0
LINE
  8
_0-2____C_ä___1
  6
CONTINUOUS
 62
    7
 10
29.982060500000003
 20
17.367291000000002
 11
29.958357500000002
 21
17.331805000000003
  0
LINE
  8
_0-2____C_ä___1
  6
CONTINUOUS
 62
    7
 10
29.958357500000002
 20
17.331805000000003
 11
29.962767500000002
 21
17.359022000000003
  0
LINE
  8
_0-2____C_ä___1
  6
CONTINUOUS
 62
    7
 10
29.962767500000002
 20
17.359022000000003
 11
29.967798500000001
 21
17.390857
  0
LINE
  8
_0-2____C_ä___1
  6
CONTINUOUS
 62
    7
 10
30.010378500000002
 20
17.388582000000003
 11
30.010759500000002
 21
17.388444
  0
LINE
  8
_0-2____C_ä___1
  6
CONTINUOUS
 62
    7
 10
30.010759500000002
 20
17.388444
 11
30.050616500000004
 21
17.386169000000002
  0
LINE
  8
_0-2____C_ä___1
  6
CONTINUOUS
 62
    7
 10
30.050616500000004
 20
17.386169000000002
 11
30.050616500000004
 21
17.376732000000001
  0
LINE
  8
_0-2____C_ä___1
  6
CONTINUOUS
 62
    7
 10
30.050616500000004
 20
17.376732000000001
 11
30.017405500000002
 21
17.376732000000001
  0
LINE
  8
_0-2____C_ä___1
  6
CONTINUOUS
 62
    7
 10
29.833026500000003
 20
17.355438000000003
 11
29.823620500000001
 21
17.308102000000002
  0
LINE
  8
_0-2____C_ä___1
  6
CONTINUOUS
 62
    7
 10
29.818900500000002
 20
17.272757000000002
 11
29.844875500000001
 21
17.239546999999998
  0
LINE
  8
_0-2____C_ä___1
  6
CONTINUOUS
 62
    7
 10
29.844875500000001
 20
17.239546999999998
 11
29.870850500000003
 21
17.234929000000001
  0
LINE
  8
_0-2____C_ä___1
  6
CONTINUOUS
 62
    7
 10
29.870850500000003
 20
17.234929000000001
 11
30.003315499999999
 21
17.239546999999998
  0
LINE
  8
_0-2____C_ä___1
  6
CONTINUOUS
 62
    7
 10
30.003315499999999
 20
17.239546999999998
 11
30.003315499999999
 21
17.225421000000001
  0
LINE
  8
_0-2____C_ä___1
  6
CONTINUOUS
 62
    7
 10
30.003315499999999
 20
17.225421000000001
 11
29.9725495
 21
17.225421000000001
  0
LINE
  8
_0-2____C_ä___1
  6
CONTINUOUS
 62
    7
 10
29.9725495
 20
17.225421000000001
 11
29.970140499999999
 21
17.206540999999998
  0
LINE
  8
_0-2____C_ä___1
  6
CONTINUOUS
 62
    7
 10
29.970140499999999
 20
17.206540999999998
 11
29.932312500000002
 21
17.201718000000003
  0
LINE
  8
_0-2____C_ä___1
  6
CONTINUOUS
 62
    7
 10
29.932312500000002
 20
17.201718000000003
 11
29.932312500000002
 21
17.220666000000001
  0
LINE
  8
_0-2____C_ä___1
  6
CONTINUOUS
 62
    7
 10
29.932312500000002
 20
17.220666000000001
 11
29.859071499999999
 21
17.227834000000001
  0
LINE
  8
_0-2____C_ä___1
  6
CONTINUOUS
 62
    7
 10
29.859071499999999
 20
17.227834000000001
 11
29.818900500000002
 21
17.272757000000002
  0
LINE
  8
_0-2____C_ä___1
  6
CONTINUOUS
 62
    7
 10
29.889766500000004
 20
17.197033000000001
 11
29.892211499999998
 21
17.180499000000001
  0
LINE
  8
_0-2____C_ä___1
  6
CONTINUOUS
 62
    7
 10
29.892211499999998
 20
17.180499000000001
 11
29.918186500000004
 21
17.173468
  0
LINE
  8
_0-2____C_ä___1
  6
CONTINUOUS
 62
    7
 10
29.918186500000004
 20
17.173468
 11
29.920529500000001
 21
17.197033000000001
  0
LINE
  8
_0-2____C_ä___1
  6
CONTINUOUS
 62
    7
 10
29.920529500000001
 20
17.197033000000001
 11
29.889766500000004
 21
17.197033000000001
  0
LINE
  8
_0-2____C_ä___1
  6
CONTINUOUS
 62
    7
 10
29.974927500000003
 20
17.201718000000003
 11
29.956015500000003
 21
17.168645000000001
  0
LINE
  8
_0-2____C_ä___1
  6
CONTINUOUS
 62
    7
 10
29.956015500000003
 20
17.168645000000001
 11
29.965455500000004
 21
17.154520000000002
  0
LINE
  8
_0-2____C_ä___1
  6
CONTINUOUS
 62
    7
 10
29.965455500000004
 20
17.154520000000002
 11
29.989088499999998
 21
17.161551000000003
  0
LINE
  8
_0-2____C_ä___1
  6
CONTINUOUS
 62
    7
 10
29.989088499999998
 20
17.161551000000003
 11
30.000870499999998
 21
17.182841
  0
LINE
  8
_0-2____C_ä___1
  6
CONTINUOUS
 62
    7
 10
30.000870499999998
 20
17.182841
 11
30.000870499999998
 21
17.206540999999998
  0
LINE
  8
_0-2____C_ä___1
  6
CONTINUOUS
 62
    7
 10
30.000870499999998
 20
17.206540999999998
 11
29.974927500000003
 21
17.201718000000003
  0
LINE
  8
_0-2____C_ä___1
  6
CONTINUOUS
 62
    7
 10
30.012791499999999
 20
17.220666000000001
 11
30.019854500000005
 21
17.182841
  0
LINE
  8
_0-2____C_ä___1
  6
CONTINUOUS
 62
    7
 10
30.019854500000005
 20
17.182841
 11
30.031668500000002
 21
17.156863000000001
  0
LINE
  8
_0-2____C_ä___1
  6
CONTINUOUS
 62
    7
 10
30.031668500000002
 20
17.156863000000001
 11
30.043521499999997
 21
17.187593
  0
LINE
  8
_0-2____C_ä___1
  6
CONTINUOUS
 62
    7
 10
30.043521499999997
 20
17.187593
 11
30.062399499999998
 21
17.194624000000001
  0
LINE
  8
_0-2____C_ä___1
  6
CONTINUOUS
 62
    7
 10
30.062399499999998
 20
17.194624000000001
 11
30.083689499999998
 21
17.201718000000003
  0
LINE
  8
_0-2____C_ä___1
  6
CONTINUOUS
 62
    7
 10
30.083689499999998
 20
17.201718000000003
 11
30.102534500000004
 21
17.286883
  0
LINE
  8
_0-2____C_ä___1
  6
CONTINUOUS
 62
    7
 10
30.102534500000004
 20
17.286883
 11
30.069461500000003
 21
17.246645000000001
  0
LINE
  8
_0-2____C_ä___1
  6
CONTINUOUS
 62
    7
 10
30.069461500000003
 20
17.246645000000001
 11
30.055371500000003
 21
17.227834000000001
  0
LINE
  8
_0-2____C_ä___1
  6
CONTINUOUS
 62
    7
 10
30.055371500000003
 20
17.227834000000001
 11
30.043521499999997
 21
17.215981000000003
  0
LINE
  8
_0-2____C_ä___1
  6
CONTINUOUS
 62
    7
 10
30.043521499999997
 20
17.215981000000003
 11
30.012791499999999
 21
17.220666000000001
  0
LINE
  8
_0-2____C_ä___1
  6
CONTINUOUS
 62
    7
 10
30.060056499999998
 20
17.506819000000004
 11
30.060056499999998
 21
17.466577000000001
  0
LINE
  8
_0-2____C_ä___1
  6
CONTINUOUS
 62
    7
 10
30.060056499999998
 20
17.466577000000001
 11
30.128615500000002
 21
17.464235000000002
  0
LINE
  8
_0-2____C_ä___1
  6
CONTINUOUS
 62
    7
 10
30.128615500000002
 20
17.464235000000002
 11
30.130958499999998
 21
17.398022000000001
  0
LINE
  8
_0-2____C_ä___1
  6
CONTINUOUS
 62
    7
 10
30.130958499999998
 20
17.398022000000001
 11
30.1403985
 21
17.402707000000003
  0
LINE
  8
_0-2____C_ä___1
  6
CONTINUOUS
 62
    7
 10
30.1403985
 20
17.402707000000003
 11
30.1403985
 21
17.487871000000002
  0
LINE
  8
_0-2____C_ä___1
  6
CONTINUOUS
 62
    7
 10
30.1403985
 20
17.487871000000002
 11
30.078937500000002
 21
17.492556000000004
  0
LINE
  8
_0-2____C_ä___1
  6
CONTINUOUS
 62
    7
 10
30.078937500000002
 20
17.492556000000004
 11
30.071839499999999
 21
17.485525000000003
  0
LINE
  8
_0-2____C_ä___1
  6
CONTINUOUS
 62
    7
 10
30.071839499999999
 20
17.485525000000003
 11
30.060056499999998
 21
17.506819000000004
  0
LINE
  8
_0-2____C_ä___1
  6
CONTINUOUS
 62
    7
 10
30.071839499999999
 20
17.681758000000002
 11
30.067154500000001
 21
17.594184000000002
  0
LINE
  8
_0-2____C_ä___1
  6
CONTINUOUS
 62
    7
 10
30.067154500000001
 20
17.594184000000002
 11
30.081315500000002
 21
17.575374
  0
LINE
  8
_0-2____C_ä___1
  6
CONTINUOUS
 62
    7
 10
30.081315500000002
 20
17.575374
 11
30.0931645
 21
17.577650000000002
  0
LINE
  8
_0-2____C_ä___1
  6
CONTINUOUS
 62
    7
 10
30.0931645
 20
17.577650000000002
 11
30.100227500000003
 21
17.558769000000002
  0
LINE
  8
_0-2____C_ä___1
  6
CONTINUOUS
 62
    7
 10
30.100227500000003
 20
17.558769000000002
 11
30.114419499999997
 21
17.563591000000002
  0
LINE
  8
_0-2____C_ä___1
  6
CONTINUOUS
 62
    7
 10
30.114419499999997
 20
17.563591000000002
 11
30.1215175
 21
17.589499
  0
LINE
  8
_0-2____C_ä___1
  6
CONTINUOUS
 62
    7
 10
30.1215175
 20
17.589499
 11
30.133300500000004
 21
17.587157000000001
  0
LINE
  8
_0-2____C_ä___1
  6
CONTINUOUS
 62
    7
 10
30.133300500000004
 20
17.587157000000001
 11
30.130958499999998
 21
17.684034
  0
LINE
  8
_0-2____C_ä___1
  6
CONTINUOUS
 62
    7
 10
30.130958499999998
 20
17.684034
 11
30.071839499999999
 21
17.681758000000002
  0
LINE
  8
_0-2____C_ä___1
  6
CONTINUOUS
 62
    7
 10
30.1593105
 20
17.681758000000002
 11
30.156933500000004
 21
17.660401000000004
  0
LINE
  8
_0-2____C_ä___1
  6
CONTINUOUS
 62
    7
 10
30.156933500000004
 20
17.660401000000004
 11
30.147492499999998
 21
17.660401000000004
  0
LINE
  8
_0-2____C_ä___1
  6
CONTINUOUS
 62
    7
 10
30.147492499999998
 20
17.660401000000004
 11
30.138055500000004
 21
17.535203000000003
  0
LINE
  8
_0-2____C_ä___1
  6
CONTINUOUS
 62
    7
 10
30.138055500000004
 20
17.535203000000003
 11
30.1403985
 21
17.513913000000002
  0
LINE
  8
_0-2____C_ä___1
  6
CONTINUOUS
 62
    7
 10
30.1403985
 20
17.513913000000002
 11
30.161755499999998
 21
17.516189000000001
  0
LINE
  8
_0-2____C_ä___1
  6
CONTINUOUS
 62
    7
 10
30.161755499999998
 20
17.516189000000001
 11
30.1664405
 21
17.603625000000001
  0
LINE
  8
_0-2____C_ä___1
  6
CONTINUOUS
 62
    7
 10
30.1664405
 20
17.603625000000001
 11
30.175845499999998
 21
17.615475
  0
LINE
  8
_0-2____C_ä___1
  6
CONTINUOUS
 62
    7
 10
30.175845499999998
 20
17.615475
 11
30.175845499999998
 21
17.653303000000001
  0
LINE
  8
_0-2____C_ä___1
  6
CONTINUOUS
 62
    7
 10
30.175845499999998
 20
17.653303000000001
 11
30.208918499999999
 21
17.658125000000002
  0
LINE
  8
_0-2____C_ä___1
  6
CONTINUOUS
 62
    7
 10
30.208918499999999
 20
17.658125000000002
 11
30.211366499999997
 21
17.681758000000002
  0
LINE
  8
_0-2____C_ä___1
  6
CONTINUOUS
 62
    7
 10
30.211366499999997
 20
17.681758000000002
 11
30.1593105
 21
17.681758000000002
  0
LINE
  8
_0-2____C_ä___1
  6
CONTINUOUS
 62
    7
 10
30.223149500000002
 20
17.513913000000002
 11
30.223149500000002
 21
17.490213000000001
  0
LINE
  8
_0-2____C_ä___1
  6
CONTINUOUS
 62
    7
 10
30.223149500000002
 20
17.490213000000001
 11
30.1948285
 21
17.490213000000001
  0
LINE
  8
_0-2____C_ä___1
  6
CONTINUOUS
 62
    7
 10
30.1948285
 20
17.490213000000001
 11
30.1876985
 21
17.398022000000001
  0
LINE
  8
_0-2____C_ä___1
  6
CONTINUOUS
 62
    7
 10
30.1876985
 20
17.398022000000001
 11
30.178293500000002
 21
17.400364
  0
LINE
  8
_0-2____C_ä___1
  6
CONTINUOUS
 62
    7
 10
30.178293500000002
 20
17.400364
 11
30.178293500000002
 21
17.350753000000001
  0
LINE
  8
_0-2____C_ä___1
  6
CONTINUOUS
 62
    7
 10
30.178293500000002
 20
17.350753000000001
 11
30.161755499999998
 21
17.350753000000001
  0
LINE
  8
_0-2____C_ä___1
  6
CONTINUOUS
 62
    7
 10
30.161755499999998
 20
17.350753000000001
 11
30.161755499999998
 21
17.322436
  0
LINE
  8
_0-2____C_ä___1
  6
CONTINUOUS
 62
    7
 10
30.161755499999998
 20
17.322436
 11
30.156933500000004
 21
17.286883
  0
LINE
  8
_0-2____C_ä___1
  6
CONTINUOUS
 62
    7
 10
30.156933500000004
 20
17.286883
 11
30.178293500000002
 21
17.291638000000003
  0
LINE
  8
_0-2____C_ä___1
  6
CONTINUOUS
 62
    7
 10
30.178293500000002
 20
17.291638000000003
 11
30.173538500000003
 21
17.251397000000001
  0
LINE
  8
_0-2____C_ä___1
  6
CONTINUOUS
 62
    7
 10
30.173538500000003
 20
17.251397000000001
 11
30.1593105
 21
17.251397000000001
  0
LINE
  8
_0-2____C_ä___1
  6
CONTINUOUS
 62
    7
 10
30.1593105
 20
17.251397000000001
 11
30.152248500000002
 21
17.230106000000003
  0
LINE
  8
_0-2____C_ä___1
  6
CONTINUOUS
 62
    7
 10
30.152248500000002
 20
17.230106000000003
 11
30.147492499999998
 21
17.251397000000001
  0
LINE
  8
_0-2____C_ä___1
  6
CONTINUOUS
 62
    7
 10
30.147492499999998
 20
17.251397000000001
 11
30.1239305
 21
17.253809999999998
  0
LINE
  8
_0-2____C_ä___1
  6
CONTINUOUS
 62
    7
 10
30.1239305
 20
17.253809999999998
 11
30.1239305
 21
17.28454
  0
LINE
  8
_0-2____C_ä___1
  6
CONTINUOUS
 62
    7
 10
30.1239305
 20
17.28454
 11
30.142772500000003
 21
17.291638000000003
  0
LINE
  8
_0-2____C_ä___1
  6
CONTINUOUS
 62
    7
 10
30.142772500000003
 20
17.291638000000003
 11
30.147492499999998
 21
17.322436
  0
LINE
  8
_0-2____C_ä___1
  6
CONTINUOUS
 62
    7
 10
30.147492499999998
 20
17.322436
 11
30.126237500000002
 21
17.319956000000001
  0
LINE
  8
_0-2____C_ä___1
  6
CONTINUOUS
 62
    7
 10
30.126237500000002
 20
17.319956000000001
 11
30.1239305
 21
17.364878000000001
  0
LINE
  8
_0-2____C_ä___1
  6
CONTINUOUS
 62
    7
 10
30.1239305
 20
17.364878000000001
 11
30.154590500000001
 21
17.367291000000002
  0
LINE
  8
_0-2____C_ä___1
  6
CONTINUOUS
 62
    7
 10
30.154590500000001
 20
17.367291000000002
 11
30.1593105
 21
17.483116000000003
  0
LINE
  8
_0-2____C_ä___1
  6
CONTINUOUS
 62
    7
 10
30.1593105
 20
17.483116000000003
 11
30.171128499999998
 21
17.483116000000003
  0
LINE
  8
_0-2____C_ä___1
  6
CONTINUOUS
 62
    7
 10
30.171128499999998
 20
17.483116000000003
 11
30.171128499999998
 21
17.513913000000002
  0
LINE
  8
_0-2____C_ä___1
  6
CONTINUOUS
 62
    7
 10
30.171128499999998
 20
17.513913000000002
 11
30.223149500000002
 21
17.513913000000002
  0
LINE
  8
_0-2____C_ä___1
  6
CONTINUOUS
 62
    7
 10
30.062399499999998
 20
17.561111
 11
30.064741499999997
 21
17.532794000000003
  0
LINE
  8
_0-2____C_ä___1
  6
CONTINUOUS
 62
    7
 10
30.100227500000003
 20
17.535203000000003
 11
30.100227500000003
 21
17.516189000000001
  0
LINE
  8
_0-2____C_ä___1
  6
CONTINUOUS
 62
    7
 10
30.050616500000004
 20
17.438189000000001
 11
30.048206499999999
 21
17.419312000000001
  0
LINE
  8
_0-2____C_ä___1
  6
CONTINUOUS
 62
    7
 10
30.097849500000002
 20
17.414557000000002
 11
30.097849500000002
 21
17.381484
  0
LINE
  8
_0-2____C_ä___1
  6
CONTINUOUS
 62
    7
 10
30.097849500000002
 20
17.343659000000002
 11
30.097849500000002
 21
17.315271000000003
  0
LINE
  8
_0-2____C_ä___1
  6
CONTINUOUS
 62
    7
 10
30.208918499999999
 20
17.412147000000001
 11
30.208918499999999
 21
17.393266000000001
  0
LINE
  8
_0-2____C_ä___1
  6
CONTINUOUS
 62
    7
 10
30.211366499999997
 20
17.369563000000003
 11
30.211366499999997
 21
17.346001000000001
  0
LINE
  8
_0-2____C_ä___1
  6
CONTINUOUS
 62
    7
 10
30.211366499999997
 20
17.317680000000003
 11
30.211366499999997
 21
17.291638000000003
  0
LINE
  8
_0-2____C_ä___1
  6
CONTINUOUS
 62
    7
 10
29.963077499999997
 20
17.291638000000003
 11
29.960770500000002
 21
17.275100000000002
  0
LINE
  8
_0-2____C_ä___1
  6
CONTINUOUS
 62
    7
 10
30.197104500000002
 20
17.267935000000001
 11
30.1948285
 21
17.246645000000001
  0
LINE
  8
_0-2____C_ä___1
  6
CONTINUOUS
 62
    7
 10
30.1948285
 20
17.246645000000001
 11
30.220807500000003
 21
17.244369000000003
  0
LINE
  8
_0-2____C_ä___1
  6
CONTINUOUS
 62
    7
 10
30.220807500000003
 20
17.244369000000003
 11
30.216051499999999
 21
17.211229000000003
  0
LINE
  8
_0-2____C_ä___1
  6
CONTINUOUS
 62
    7
 10
30.216051499999999
 20
17.211229000000003
 11
30.234999500000001
 21
17.220666000000001
  0
LINE
  8
_0-2____C_ä___1
  6
CONTINUOUS
 62
    7
 10
30.234999500000001
 20
17.220666000000001
 11
30.234999500000001
 21
17.275100000000002
  0
LINE
  8
_0-2____C_ä___1
  6
CONTINUOUS
 62
    7
 10
30.234999500000001
 20
17.275100000000002
 11
30.197104500000002
 21
17.267935000000001
  0
LINE
  8
_0-2____C_ä___1
  6
CONTINUOUS
 62
    7
 10
30.071839499999999
 20
17.161551000000003
 11
30.0954725
 21
17.161551000000003
  0
LINE
  8
_0-2____C_ä___1
  6
CONTINUOUS
 62
    7
 10
30.109699500000001
 20
17.159276000000002
 11
30.119104499999999
 21
17.159276000000002
  0
LINE
  8
_0-2____C_ä___1
  6
CONTINUOUS
 62
    7
 10
30.119104499999999
 20
17.159276000000002
 11
30.114419499999997
 21
17.147426000000003
  0
LINE
  8
_0-2____C_ä___1
  6
CONTINUOUS
 62
    7
 10
30.1451505
 20
17.201718000000003
 11
30.142772500000003
 21
17.175810000000002
  0
LINE
  8
_0-2____C_ä___1
  6
CONTINUOUS
 62
    7
 10
30.142772500000003
 20
17.175810000000002
 11
30.161755499999998
 21
17.175810000000002
  0
LINE
  8
_0-2____C_ä___1
  6
CONTINUOUS
 62
    7
 10
30.161755499999998
 20
17.175810000000002
 11
30.168782499999999
 21
17.197033000000001
  0
LINE
  8
_0-2____C_ä___1
  6
CONTINUOUS
 62
    7
 10
30.168782499999999
 20
17.197033000000001
 11
30.1451505
 21
17.201718000000003
  0
TEXT
  8
_0-2____C_ä___1
 62
    7
 10
30.469598711081446
 20
17.547929424875289
 40
0.4233339999999999
 41
1
 50
0
  1
YW1413
  0
ENDSEC
  0
EOF
