  0
SECTION
  2
HEADER
  9
$ACADVER
  1
AC1009
  9
$INSBASE
 10
0
 20
0
 30
0
  9
$EXTMIN
 10
0
 20
0
  9
$EXTMAX
 10
59.400000000000006
 20
42
  9
$LIMMIN
 10
0
 20
0
  9
$LIMMAX
 10
59.400000000000006
 20
42
  9
$LTSCALE
 40
0.1
  0
ENDSEC
  0
SECTION
  2
TABLES
  0
TABLE
  2
LTYPE
 70
     9
  0
LTYPE
  2
CONTINUOUS
 70
    64
  3
Ä└É³
 72
    65
 73
     0
 40
0.0
  0
LTYPE
  2
DASHED1
 70
    64
  3
--  --  --  --  --  --  --  --  
 72
    65
 73
     2
 40
2.5
 49
1.25
 49
-1.25
  0
LTYPE
  2
DASHED2
 70
    64
  3
----    ----    ----    ----    
 72
    65
 73
     2
 40
5.0
 49
2.5
 49
-2.5
  0
LTYPE
  2
DASHED3
 70
    64
  3
------  ------  ------  ------  
 72
    65
 73
     2
 40
5.0
 49
3.75
 49
-1.25
  0
LTYPE
  2
CENTER1
 70
    64
  3
----- - ----- - ----- - ----- - 
 72
    65
 73
     4
 40
10.0
 49
6.25
 49
-1.25
 49
1.25
 49
-1.25
  0
LTYPE
  2
CENTER2
 70
    64
  3
----------  --  ----------  --  
 72
    65
 73
     4
 40
20.0
 49
12.5
 49
-2.5
 49
2.5
 49
-2.5
  0
LTYPE
  2
PHANTOM1
 70
    64
  3
--- - - --- - - --- - - --- - - 
 72
    65
 73
     6
 40
10.0
 49
3.25
 49
-1.25
 49
1.25
 49
-1.25
 49
1.25
 49
-1.25
  0
LTYPE
  2
PHANTOM2
 70
    64
  3
--------  -  -  --------  -  -  
 72
    65
 73
     6
 40
20.0
 49
10.0
 49
-2.5
 49
1.25
 49
-2.5
 49
1.25
 49
-2.5
  0
LTYPE
  2
DOT
 70
    64
  3
-   -   -   -   -   -   -   -   
 72
    65
 73
     2
 40
2.5
 49
0.625
 49
-1.875
  0
LTYPE
  2
DUMMY
 70
    64
  3
â_â~ü[
 72
    65
 73
     0
 40
0.0
  0
LTYPE
  2
RAND1
 70
    64
  3
âëâôâ_âÇÉ³1
 72
    65
 73
     4
 40
10.0
 49
1.0
 49
-2.0
 49
3.0
 49
-4.0
  0
LTYPE
  2
RAND2
 70
    64
  3
âëâôâ_âÇÉ³2
 72
    65
 73
     4
 40
14.0
 49
2.0
 49
-3.0
 49
4.0
 49
-5.0
  0
LTYPE
  2
RAND3
 70
    64
  3
âëâôâ_âÇÉ³3
 72
    65
 73
     4
 40
18.0
 49
3.0
 49
-4.0
 49
5.0
 49
-6.0
  0
LTYPE
  2
RAND4
 70
    64
  3
âëâôâ_âÇÉ³4
 72
    65
 73
     4
 40
22.0
 49
4.0
 49
-5.0
 49
6.0
 49
-7.0
  0
LTYPE
  2
RAND5
 70
    64
  3
âëâôâ_âÇÉ³5
 72
    65
 73
     4
 40
26.0
 49
5.0
 49
-6.0
 49
7.0
 49
-8.0
  0
LTYPE
  2
LONG1
 70
    64
  3
----------  --  ----------  --  
 72
    65
 73
     4
 40
40.0
 49
32.5
 49
-2.5
 49
2.5
 49
-2.5
  0
LTYPE
  2
LONG2
 70
    64
  3
--------  -  -  --------  -  -  
 72
    65
 73
     6
 40
40.0
 49
30.0
 49
-2.5
 49
1.25
 49
-2.5
 49
1.25
 49
-2.5
  0
LTYPE
  2
LONG3
 70
    64
  3
+++++++++++++++..+++++++++++++++
 72
    65
 73
     2
 40
40.0
 49
37.5
 49
-2.5
  0
LTYPE
  2
LONG4
 70
    64
  3
+++++++++++++++..+++++++++++++++
 72
    65
 73
     2
 40
80.0
 49
75.0
 49
-5.0
  0
LTYPE
  2
LONG5
 70
    64
  3
----------  --  ----------  --  
 72
    65
 73
     4
 40
60.0
 49
37.5
 49
-7.5
 49
7.5
 49
-7.5
  0
LTYPE
  2
dashed
 70
   64
  3
-------   -------------   ------
 72
   65
 73
    2
 40
7.5
 49
6
 49
-1.5
  0
LTYPE
  2
dashed_spaced
 70
   64
  3
----        --------        ----
 72
   65
 73
    2
 40
12
 49
6
 49
-6
  0
LTYPE
  2
long_dashed_dotted
 70
   64
  3
------------- --- --------------
 72
   65
 73
    4
 40
15.25
 49
12
 49
-1.5
 49
0.25
 49
-1.5
  0
LTYPE
  2
long_dashed_double-dotted
 70
   64
  3
----------- --- --- ------------
 72
   65
 73
    6
 40
17
 49
12
 49
-1.5
 49
0.25
 49
-1.5
 49
0.25
 49
-1.5
  0
LTYPE
  2
long_dashed_triplicate-dotted
 70
   64
  3
--------- --- --- --- ----------
 72
   65
 73
    8
 40
18.75
 49
12
 49
-1.5
 49
0.25
 49
-1.5
 49
0.25
 49
-1.5
 49
0.25
 49
-1.5
  0
LTYPE
  2
dotted
 70
   64
  3
   -       -       -       -    
 72
   65
 73
    2
 40
1.75
 49
0.25
 49
-1.5
  0
LTYPE
  2
chain
 70
   64
  3
-------------- -- --------------
 72
   65
 73
    4
 40
18.5
 49
12
 49
-1.5
 49
3.5
 49
-1.5
  0
LTYPE
  2
chain_double_dash
 70
   64
  3
------------ -- -- -------------
 72
   65
 73
    6
 40
23.5
 49
12
 49
-1.5
 49
3.5
 49
-1.5
 49
3.5
 49
-1.5
  0
LTYPE
  2
dashed_dotted
 70
   64
  3
-----------     -     ----------
 72
   65
 73
    4
 40
9.25
 49
6
 49
-1.5
 49
0.25
 49
-1.5
  0
LTYPE
  2
double-dashed_dotted
 70
   64
  3
------   -----------   -   -----
 72
   65
 73
    6
 40
16.75
 49
6
 49
-1.5
 49
6
 49
-1.5
 49
0.25
 49
-1.5
  0
LTYPE
  2
dashed_double-dotted
 70
   64
  3
---------    -    -    ---------
 72
   65
 73
    6
 40
11
 49
6
 49
-1.5
 49
0.25
 49
-1.5
 49
0.25
 49
-1.5
  0
LTYPE
  2
double-dashed_double-dotted
 70
   64
  3
-----   ---------   -   -   ----
 72
   65
 73
    8
 40
18.5
 49
6
 49
-1.5
 49
6
 49
-1.5
 49
0.25
 49
-1.5
 49
0.25
 49
-1.5
  0
LTYPE
  2
dashed_triplicate-dotted
 70
   64
  3
-------    -    -    -    ------
 72
   65
 73
    8
 40
12.75
 49
6
 49
-1.5
 49
0.25
 49
-1.5
 49
0.25
 49
-1.5
 49
0.25
 49
-1.5
  0
LTYPE
  2
double-dashed_triplicate-dotted
 70
   64
  3
-----  ---------  -  -  -  -----
 72
   65
 73
   10
 40
20.25
 49
6
 49
-1.5
 49
6
 49
-1.5
 49
0.25
 49
-1.5
 49
0.25
 49
-1.5
 49
0.25
 49
-1.5
  0
LTYPE
  2
undefined
 70
   64
  3
--------------------------------
 72
   65
 73
    0
 40
0
  0
ENDTAB
  0
TABLE
  2
STYLE
  5
3
100
AcDbSymbolTable
 70
     1
  0
STYLE
  5
10
100
AcDbSymbolTableRecord
100
AcDbTextStyleTableRecord
  2
STANDARD
 70
     0
 40
0.0
 41
1.0
 50
0.0
 71
     0
 42
0.2
  3
txt
  4
bigfont.shx
  0
STYLE
  5
26
100
AcDbSymbolTableRecord
100
AcDbTextStyleTableRecord
  2
TATEGAKI
 70
    68
 40
0.0
 41
1.0
 50
0.0
 71
     0
 42
1.0
  3
txt
  4
bigfont.shx
  0
ENDTAB
  0
TABLE
  2
LAYER
 70
    2
  0
LAYER
  2
_0-2____C_ä___1
 70
   64
 62
    7
  6
CONTINUOUS
  0
LAYER
  2
ADD_LINE
 70
   64
 62
    7
  6
CONTINUOUS
  0
ENDTAB
  0
ENDSEC
  0
SECTION
  2
BLOCKS
  0
ENDSEC
  0
SECTION
  2
ENTITIES
  0
LINE
  8
_0-2____C_ä___1
  6
CONTINUOUS
 62
    7
 10
29.598454000000004
 20
19.031403000000001
 11
29.593448000000002
 21
19.021443000000001
  0
LINE
  8
_0-2____C_ä___1
  6
CONTINUOUS
 62
    7
 10
29.593448000000002
 20
19.021443000000001
 11
29.578409000000001
 21
18.997671
  0
LINE
  8
_0-2____C_ä___1
  6
CONTINUOUS
 62
    7
 10
29.578409000000001
 20
18.997671
 11
29.553307000000004
 21
18.969245000000001
  0
LINE
  8
_0-2____C_ä___1
  6
CONTINUOUS
 62
    7
 10
29.553307000000004
 20
18.969245000000001
 11
29.518111000000001
 21
18.945322999999998
  0
LINE
  8
_0-2____C_ä___1
  6
CONTINUOUS
 62
    7
 10
29.518111000000001
 20
18.945322999999998
 11
29.472791000000001
 21
18.935065000000005
  0
LINE
  8
_0-2____C_ä___1
  6
CONTINUOUS
 62
    7
 10
29.472791000000001
 20
18.935065000000005
 11
29.417316
 21
18.94763
  0
LINE
  8
_0-2____C_ä___1
  6
CONTINUOUS
 62
    7
 10
29.417316
 20
18.94763
 11
29.351656000000006
 21
18.992176000000001
  0
LINE
  8
_0-2____C_ä___1
  6
CONTINUOUS
 62
    7
 10
29.351656000000006
 20
18.992176000000001
 11
29.275779
 21
19.077862000000003
  0
LINE
  8
_0-2____C_ä___1
  6
CONTINUOUS
 62
    7
 10
29.275779
 20
19.077862000000003
 11
29.189656000000003
 21
19.213847000000001
  0
LINE
  8
_0-2____C_ä___1
  6
CONTINUOUS
 62
    7
 10
29.189656000000003
 20
19.213847000000001
 11
29.093254999999999
 21
19.409291000000003
  0
LINE
  8
_0-2____C_ä___1
  6
CONTINUOUS
 62
    7
 10
29.093254999999999
 20
19.409291000000003
 11
28.986546000000001
 21
19.673352000000001
  0
LINE
  8
_0-2____C_ä___1
  6
CONTINUOUS
 62
    7
 10
28.986546000000001
 20
19.673352000000001
 11
28.869499000000005
 21
20.015188000000002
  0
LINE
  8
_0-2____C_ä___1
  6
CONTINUOUS
 62
    7
 10
28.869499000000005
 20
20.015188000000002
 11
28.742083000000004
 21
20.443959000000003
  0
LINE
  8
_0-2____C_ä___1
  6
CONTINUOUS
 62
    7
 10
28.742083000000004
 20
20.443959000000003
 11
28.604268000000005
 21
20.968823
  0
LINE
  8
_0-2____C_ä___1
  6
CONTINUOUS
 62
    7
 10
28.598239000000003
 20
20.632065000000001
 11
28.603851000000006
 21
20.581796000000001
  0
LINE
  8
_0-2____C_ä___1
  6
CONTINUOUS
 62
    7
 10
28.603851000000006
 20
20.581796000000001
 11
28.621470000000002
 21
20.442925000000002
  0
LINE
  8
_0-2____C_ä___1
  6
CONTINUOUS
 62
    7
 10
28.621470000000002
 20
20.442925000000002
 11
28.652271000000002
 21
20.233352
  0
LINE
  8
_0-2____C_ä___1
  6
CONTINUOUS
 62
    7
 10
28.652271000000002
 20
20.233352
 11
28.697428000000002
 21
19.970976000000004
  0
LINE
  8
_0-2____C_ä___1
  6
CONTINUOUS
 62
    7
 10
28.697428000000002
 20
19.970976000000004
 11
28.758116999999999
 21
19.673699000000003
  0
LINE
  8
_0-2____C_ä___1
  6
CONTINUOUS
 62
    7
 10
28.758116999999999
 20
19.673699000000003
 11
28.835512000000001
 21
19.35942
  0
LINE
  8
_0-2____C_ä___1
  6
CONTINUOUS
 62
    7
 10
28.835512000000001
 20
19.35942
 11
28.930787000000006
 21
19.046039000000004
  0
LINE
  8
_0-2____C_ä___1
  6
CONTINUOUS
 62
    7
 10
28.930787000000006
 20
19.046039000000004
 11
29.045118000000002
 21
18.751459000000001
  0
LINE
  8
_0-2____C_ä___1
  6
CONTINUOUS
 62
    7
 10
29.045118000000002
 20
18.751459000000001
 11
29.179679
 21
18.493576999999998
  0
LINE
  8
_0-2____C_ä___1
  6
CONTINUOUS
 62
    7
 10
29.179679
 20
18.493576999999998
 11
29.335644000000002
 21
18.290296000000001
  0
LINE
  8
_0-2____C_ä___1
  6
CONTINUOUS
 62
    7
 10
29.335644000000002
 20
18.290296000000001
 11
29.514189000000002
 21
18.159514000000001
  0
LINE
  8
_0-2____C_ä___1
  6
CONTINUOUS
 62
    7
 10
29.560491000000003
 20
19.188086000000002
 11
29.598316000000001
 21
19.117184000000002
  0
LINE
  8
_0-2____C_ä___1
  6
CONTINUOUS
 62
    7
 10
29.598316000000001
 20
19.117184000000002
 11
29.588879000000006
 21
19.050901000000003
  0
LINE
  8
_0-2____C_ä___1
  6
CONTINUOUS
 62
    7
 10
29.588879000000006
 20
19.050901000000003
 11
29.593702000000004
 21
18.984684000000001
  0
LINE
  8
_0-2____C_ä___1
  6
CONTINUOUS
 62
    7
 10
29.593702000000004
 20
18.984684000000001
 11
29.584159
 21
18.972905000000001
  0
LINE
  8
_0-2____C_ä___1
  6
CONTINUOUS
 62
    7
 10
29.584159
 20
18.972905000000001
 11
29.581782
 21
18.854668
  0
LINE
  8
_0-2____C_ä___1
  6
CONTINUOUS
 62
    7
 10
29.581782
 20
18.854668
 11
29.600729000000001
 21
18.849983000000005
  0
LINE
  8
_0-2____C_ä___1
  6
CONTINUOUS
 62
    7
 10
29.600729000000001
 20
18.849983000000005
 11
29.633802000000003
 21
18.849983000000005
  0
LINE
  8
_0-2____C_ä___1
  6
CONTINUOUS
 62
    7
 10
29.633802000000003
 20
18.849983000000005
 11
29.643310000000003
 21
18.873686000000003
  0
LINE
  8
_0-2____C_ä___1
  6
CONTINUOUS
 62
    7
 10
29.643310000000003
 20
18.873686000000003
 11
29.631527000000002
 21
18.899661000000002
  0
LINE
  8
_0-2____C_ä___1
  6
CONTINUOUS
 62
    7
 10
29.631527000000002
 20
18.899661000000002
 11
29.629082
 21
18.937486000000003
  0
LINE
  8
_0-2____C_ä___1
  6
CONTINUOUS
 62
    7
 10
29.629082
 20
18.937486000000003
 11
29.678796000000002
 21
19.022583000000001
  0
LINE
  8
_0-2____C_ä___1
  6
CONTINUOUS
 62
    7
 10
29.678796000000002
 20
19.022583000000001
 11
29.707113
 21
19.020170000000004
  0
LINE
  8
_0-2____C_ä___1
  6
CONTINUOUS
 62
    7
 10
29.707113
 20
19.020170000000004
 11
29.709456000000003
 21
18.899661000000002
  0
LINE
  8
_0-2____C_ä___1
  6
CONTINUOUS
 62
    7
 10
29.709456000000003
 20
18.899661000000002
 11
29.683551000000001
 21
18.897248000000001
  0
LINE
  8
_0-2____C_ä___1
  6
CONTINUOUS
 62
    7
 10
29.683551000000001
 20
18.897248000000001
 11
29.700085999999999
 21
18.859423000000003
  0
LINE
  8
_0-2____C_ä___1
  6
CONTINUOUS
 62
    7
 10
29.700085999999999
 20
18.859423000000003
 11
29.744942000000005
 21
18.887808000000003
  0
LINE
  8
_0-2____C_ä___1
  6
CONTINUOUS
 62
    7
 10
29.744942000000005
 20
18.887808000000003
 11
29.80406
 21
18.906689
  0
LINE
  8
_0-2____C_ä___1
  6
CONTINUOUS
 62
    7
 10
29.80406
 20
18.906689
 11
29.768574000000001
 21
18.958780000000001
  0
LINE
  8
_0-2____C_ä___1
  6
CONTINUOUS
 62
    7
 10
29.768574000000001
 20
18.958780000000001
 11
29.763854000000006
 21
19.001290000000001
  0
LINE
  8
_0-2____C_ä___1
  6
CONTINUOUS
 62
    7
 10
29.763854000000006
 20
19.001290000000001
 11
29.801718000000001
 21
19.001290000000001
  0
LINE
  8
_0-2____C_ä___1
  6
CONTINUOUS
 62
    7
 10
29.801718000000001
 20
19.001290000000001
 11
29.80406
 21
18.939832000000003
  0
LINE
  8
_0-2____C_ä___1
  6
CONTINUOUS
 62
    7
 10
29.80406
 20
18.939832000000003
 11
29.898626000000004
 21
18.930392000000001
  0
LINE
  8
_0-2____C_ä___1
  6
CONTINUOUS
 62
    7
 10
29.898626000000004
 20
18.930392000000001
 11
29.950682
 21
18.963465000000003
  0
LINE
  8
_0-2____C_ä___1
  6
CONTINUOUS
 62
    7
 10
29.950682
 20
18.963465000000003
 11
29.962465000000005
 21
19.029748000000001
  0
LINE
  8
_0-2____C_ä___1
  6
CONTINUOUS
 62
    7
 10
29.962465000000005
 20
19.029748000000001
 11
29.820594999999997
 21
19.183330000000002
  0
LINE
  8
_0-2____C_ä___1
  6
CONTINUOUS
 62
    7
 10
29.820594999999997
 20
19.183330000000002
 11
29.747319000000001
 21
19.180988000000003
  0
LINE
  8
_0-2____C_ä___1
  6
CONTINUOUS
 62
    7
 10
29.747319000000001
 20
19.180988000000003
 11
29.747319000000001
 21
19.209376000000002
  0
LINE
  8
_0-2____C_ä___1
  6
CONTINUOUS
 62
    7
 10
29.747319000000001
 20
19.209376000000002
 11
29.598316000000001
 21
19.209376000000002
  0
LINE
  8
_0-2____C_ä___1
  6
CONTINUOUS
 62
    7
 10
29.598316000000001
 20
19.209376000000002
 11
29.596009000000006
 21
19.188086000000002
  0
LINE
  8
_0-2____C_ä___1
  6
CONTINUOUS
 62
    7
 10
29.596009000000006
 20
19.188086000000002
 11
29.560491000000003
 21
19.188086000000002
  0
LINE
  8
_0-2____C_ä___1
  6
CONTINUOUS
 62
    7
 10
29.666875000000001
 20
18.975315000000002
 11
29.664600000000004
 21
18.946926000000001
  0
LINE
  8
_0-2____C_ä___1
  6
CONTINUOUS
 62
    7
 10
29.664600000000004
 20
18.946926000000001
 11
29.678245000000004
 21
18.948031
  0
LINE
  8
_0-2____C_ä___1
  6
CONTINUOUS
 62
    7
 10
29.678245000000004
 20
18.948031
 11
29.692921000000002
 21
18.949339000000002
  0
LINE
  8
_0-2____C_ä___1
  6
CONTINUOUS
 62
    7
 10
29.692921000000002
 20
18.949339000000002
 11
29.692921000000002
 21
18.968217000000003
  0
LINE
  8
_0-2____C_ä___1
  6
CONTINUOUS
 62
    7
 10
29.692921000000002
 20
18.968217000000003
 11
29.666875000000001
 21
18.975315000000002
  0
LINE
  8
_0-2____C_ä___1
  6
CONTINUOUS
 62
    7
 10
29.678796000000002
 20
18.916129000000002
 11
29.676383000000001
 21
18.942242
  0
LINE
  8
_0-2____C_ä___1
  6
CONTINUOUS
 62
    7
 10
29.676383000000001
 20
18.942242
 11
29.787522000000003
 21
18.890154000000003
  0
LINE
  8
_0-2____C_ä___1
  6
CONTINUOUS
 62
    7
 10
29.787522000000003
 20
18.890154000000003
 11
29.785113000000003
 21
18.835857999999998
  0
LINE
  8
_0-2____C_ä___1
  6
CONTINUOUS
 62
    7
 10
29.785113000000003
 20
18.835857999999998
 11
29.773259000000003
 21
18.826350000000001
  0
LINE
  8
_0-2____C_ä___1
  6
CONTINUOUS
 62
    7
 10
29.773259000000003
 20
18.826350000000001
 11
29.778015
 21
18.795620000000003
  0
LINE
  8
_0-2____C_ä___1
  6
CONTINUOUS
 62
    7
 10
29.778015
 20
18.795620000000003
 11
29.742634000000006
 21
18.800305000000005
  0
LINE
  8
_0-2____C_ä___1
  6
CONTINUOUS
 62
    7
 10
29.742634000000006
 20
18.800305000000005
 11
29.740186000000001
 21
18.722305000000002
  0
LINE
  8
_0-2____C_ä___1
  6
CONTINUOUS
 62
    7
 10
29.740186000000001
 20
18.722305000000002
 11
29.725994000000004
 21
18.722305000000002
  0
LINE
  8
_0-2____C_ä___1
  6
CONTINUOUS
 62
    7
 10
29.725994000000004
 20
18.722305000000002
 11
29.720032000000003
 21
18.677312000000001
  0
LINE
  8
_0-2____C_ä___1
  6
CONTINUOUS
 62
    7
 10
29.720032000000003
 20
18.677312000000001
 11
29.716554000000002
 21
18.651474000000004
  0
LINE
  8
_0-2____C_ä___1
  6
CONTINUOUS
 62
    7
 10
29.716554000000002
 20
18.651474000000004
 11
29.690578000000002
 21
18.651474000000004
  0
LINE
  8
_0-2____C_ä___1
  6
CONTINUOUS
 62
    7
 10
29.690578000000002
 20
18.651474000000004
 11
29.692921000000002
 21
18.795620000000003
  0
LINE
  8
_0-2____C_ä___1
  6
CONTINUOUS
 62
    7
 10
29.692921000000002
 20
18.795620000000003
 11
29.669319999999999
 21
18.802714000000005
  0
LINE
  8
_0-2____C_ä___1
  6
CONTINUOUS
 62
    7
 10
29.669319999999999
 20
18.802714000000005
 11
29.664600000000004
 21
18.779081999999999
  0
LINE
  8
_0-2____C_ä___1
  6
CONTINUOUS
 62
    7
 10
29.664600000000004
 20
18.779081999999999
 11
29.633802000000003
 21
18.779081999999999
  0
LINE
  8
_0-2____C_ä___1
  6
CONTINUOUS
 62
    7
 10
29.633802000000003
 20
18.779081999999999
 11
29.629082
 21
18.710526000000002
  0
LINE
  8
_0-2____C_ä___1
  6
CONTINUOUS
 62
    7
 10
29.629082
 20
18.710526000000002
 11
29.614922000000004
 21
18.71762
  0
LINE
  8
_0-2____C_ä___1
  6
CONTINUOUS
 62
    7
 10
29.614922000000004
 20
18.71762
 11
29.622019000000002
 21
18.800305000000005
  0
LINE
  8
_0-2____C_ä___1
  6
CONTINUOUS
 62
    7
 10
29.622019000000002
 20
18.800305000000005
 11
29.633802000000003
 21
18.833445000000001
  0
LINE
  8
_0-2____C_ä___1
  6
CONTINUOUS
 62
    7
 10
29.633802000000003
 20
18.833445000000001
 11
29.640931999999999
 21
18.814568000000005
  0
LINE
  8
_0-2____C_ä___1
  6
CONTINUOUS
 62
    7
 10
29.640931999999999
 20
18.814568000000005
 11
29.643310000000003
 21
18.847640000000002
  0
LINE
  8
_0-2____C_ä___1
  6
CONTINUOUS
 62
    7
 10
29.643310000000003
 20
18.847640000000002
 11
29.603142000000005
 21
18.842956000000001
  0
LINE
  8
_0-2____C_ä___1
  6
CONTINUOUS
 62
    7
 10
29.603142000000005
 20
18.842956000000001
 11
29.598316000000001
 21
18.783766
  0
LINE
  8
_0-2____C_ä___1
  6
CONTINUOUS
 62
    7
 10
29.598316000000001
 20
18.783766
 11
29.591289000000003
 21
18.781424000000001
  0
LINE
  8
_0-2____C_ä___1
  6
CONTINUOUS
 62
    7
 10
29.591289000000003
 20
18.781424000000001
 11
29.593702000000004
 21
18.66319
  0
LINE
  8
_0-2____C_ä___1
  6
CONTINUOUS
 62
    7
 10
29.593702000000004
 20
18.66319
 11
29.605485000000002
 21
18.682138000000002
  0
LINE
  8
_0-2____C_ä___1
  6
CONTINUOUS
 62
    7
 10
29.605485000000002
 20
18.682138000000002
 11
29.636144999999999
 21
18.684480000000004
  0
LINE
  8
_0-2____C_ä___1
  6
CONTINUOUS
 62
    7
 10
29.636144999999999
 20
18.684480000000004
 11
29.643310000000003
 21
18.757791000000001
  0
LINE
  8
_0-2____C_ä___1
  6
CONTINUOUS
 62
    7
 10
29.643310000000003
 20
18.757791000000001
 11
29.655092000000003
 21
18.750693000000002
  0
LINE
  8
_0-2____C_ä___1
  6
CONTINUOUS
 62
    7
 10
29.655092000000003
 20
18.750693000000002
 11
29.652749999999997
 21
18.682138000000002
  0
LINE
  8
_0-2____C_ä___1
  6
CONTINUOUS
 62
    7
 10
29.652749999999997
 20
18.682138000000002
 11
29.642759000000002
 21
18.668838000000001
  0
LINE
  8
_0-2____C_ä___1
  6
CONTINUOUS
 62
    7
 10
29.642759000000002
 20
18.668838000000001
 11
29.638558000000003
 21
18.66319
  0
LINE
  8
_0-2____C_ä___1
  6
CONTINUOUS
 62
    7
 10
29.638558000000003
 20
18.66319
 11
29.600729000000001
 21
18.656092000000001
  0
LINE
  8
_0-2____C_ä___1
  6
CONTINUOUS
 62
    7
 10
29.600729000000001
 20
18.656092000000001
 11
29.605485000000002
 21
18.644310000000001
  0
LINE
  8
_0-2____C_ä___1
  6
CONTINUOUS
 62
    7
 10
29.605485000000002
 20
18.644310000000001
 11
29.645620000000005
 21
18.639625000000002
  0
LINE
  8
_0-2____C_ä___1
  6
CONTINUOUS
 62
    7
 10
29.645620000000005
 20
18.639625000000002
 11
29.671697999999999
 21
18.665533000000003
  0
LINE
  8
_0-2____C_ä___1
  6
CONTINUOUS
 62
    7
 10
29.671697999999999
 20
18.665533000000003
 11
29.674005000000001
 21
18.641967000000001
  0
LINE
  8
_0-2____C_ä___1
  6
CONTINUOUS
 62
    7
 10
29.674005000000001
 20
18.641967000000001
 11
29.725994000000004
 21
18.646652
  0
LINE
  8
_0-2____C_ä___1
  6
CONTINUOUS
 62
    7
 10
29.725994000000004
 20
18.646652
 11
29.740186000000001
 21
18.675040000000003
  0
LINE
  8
_0-2____C_ä___1
  6
CONTINUOUS
 62
    7
 10
29.740186000000001
 20
18.675040000000003
 11
29.721238
 21
18.729474000000003
  0
LINE
  8
_0-2____C_ä___1
  6
CONTINUOUS
 62
    7
 10
29.508471000000004
 20
18.169092000000003
 11
29.593702000000004
 21
18.171368000000001
  0
LINE
  8
_0-2____C_ä___1
  6
CONTINUOUS
 62
    7
 10
29.593702000000004
 20
18.171368000000001
 11
29.612547000000003
 21
18.218771
  0
LINE
  8
_0-2____C_ä___1
  6
CONTINUOUS
 62
    7
 10
29.612547000000003
 20
18.218771
 11
29.633802000000003
 21
18.221046000000001
  0
LINE
  8
_0-2____C_ä___1
  6
CONTINUOUS
 62
    7
 10
29.633802000000003
 20
18.221046000000001
 11
29.645620000000005
 21
18.214015
  0
LINE
  8
_0-2____C_ä___1
  6
CONTINUOUS
 62
    7
 10
29.669319999999999
 20
18.091096
 11
29.676383000000001
 21
18.124169000000002
  0
LINE
  8
_0-2____C_ä___1
  6
CONTINUOUS
 62
    7
 10
29.676383000000001
 20
18.124169000000002
 11
29.690578000000002
 21
18.173848000000003
  0
LINE
  8
_0-2____C_ä___1
  6
CONTINUOUS
 62
    7
 10
29.690578000000002
 20
18.173848000000003
 11
29.689062000000003
 21
18.180667000000003
  0
LINE
  8
_0-2____C_ä___1
  6
CONTINUOUS
 62
    7
 10
29.689062000000003
 20
18.180667000000003
 11
29.674005000000001
 21
18.244746000000003
  0
LINE
  8
_0-2____C_ä___1
  6
CONTINUOUS
 62
    7
 10
29.674005000000001
 20
18.244746000000003
 11
29.690578000000002
 21
18.244746000000003
  0
LINE
  8
_0-2____C_ä___1
  6
CONTINUOUS
 62
    7
 10
29.690578000000002
 20
18.244746000000003
 11
29.688164999999998
 21
18.225868000000002
  0
LINE
  8
_0-2____C_ä___1
  6
CONTINUOUS
 62
    7
 10
29.688164999999998
 20
18.225868000000002
 11
29.688164999999998
 21
18.204578000000001
  0
LINE
  8
_0-2____C_ä___1
  6
CONTINUOUS
 62
    7
 10
29.688164999999998
 20
18.204578000000001
 11
29.681138000000001
 21
18.188040000000001
  0
LINE
  8
_0-2____C_ä___1
  6
CONTINUOUS
 62
    7
 10
29.681138000000001
 20
18.188040000000001
 11
29.669319999999999
 21
18.176190000000002
  0
LINE
  8
_0-2____C_ä___1
  6
CONTINUOUS
 62
    7
 10
29.669319999999999
 20
18.176190000000002
 11
29.645620000000005
 21
18.140704000000003
  0
LINE
  8
_0-2____C_ä___1
  6
CONTINUOUS
 62
    7
 10
29.645620000000005
 20
18.140704000000003
 11
29.650030000000001
 21
18.167921000000003
  0
LINE
  8
_0-2____C_ä___1
  6
CONTINUOUS
 62
    7
 10
29.650030000000001
 20
18.167921000000003
 11
29.655092000000003
 21
18.199752
  0
LINE
  8
_0-2____C_ä___1
  6
CONTINUOUS
 62
    7
 10
29.697673000000005
 20
18.197480000000002
 11
29.698019000000002
 21
18.197343
  0
LINE
  8
_0-2____C_ä___1
  6
CONTINUOUS
 62
    7
 10
29.698019000000002
 20
18.197343
 11
29.737914000000004
 21
18.195067000000002
  0
LINE
  8
_0-2____C_ä___1
  6
CONTINUOUS
 62
    7
 10
29.737914000000004
 20
18.195067000000002
 11
29.737914000000004
 21
18.185697999999999
  0
LINE
  8
_0-2____C_ä___1
  6
CONTINUOUS
 62
    7
 10
29.737914000000004
 20
18.185697999999999
 11
29.704704
 21
18.185697999999999
  0
LINE
  8
_0-2____C_ä___1
  6
CONTINUOUS
 62
    7
 10
29.520319999999998
 20
18.164337
 11
29.510880000000004
 21
18.117072000000004
  0
LINE
  8
_0-2____C_ä___1
  6
CONTINUOUS
 62
    7
 10
29.506160000000001
 20
18.081656000000002
 11
29.532170000000004
 21
18.048446000000002
  0
LINE
  8
_0-2____C_ä___1
  6
CONTINUOUS
 62
    7
 10
29.532170000000004
 20
18.048446000000002
 11
29.558149000000004
 21
18.043828000000001
  0
LINE
  8
_0-2____C_ä___1
  6
CONTINUOUS
 62
    7
 10
29.558149000000004
 20
18.043828000000001
 11
29.690578000000002
 21
18.048446000000002
  0
LINE
  8
_0-2____C_ä___1
  6
CONTINUOUS
 62
    7
 10
29.690578000000002
 20
18.048446000000002
 11
29.690578000000002
 21
18.034387000000002
  0
LINE
  8
_0-2____C_ä___1
  6
CONTINUOUS
 62
    7
 10
29.690578000000002
 20
18.034387000000002
 11
29.659848
 21
18.034387000000002
  0
LINE
  8
_0-2____C_ä___1
  6
CONTINUOUS
 62
    7
 10
29.659848
 20
18.034387000000002
 11
29.657435
 21
18.015440000000002
  0
LINE
  8
_0-2____C_ä___1
  6
CONTINUOUS
 62
    7
 10
29.657435
 20
18.015440000000002
 11
29.619610000000002
 21
18.010687999999998
  0
LINE
  8
_0-2____C_ä___1
  6
CONTINUOUS
 62
    7
 10
29.619610000000002
 20
18.010687999999998
 11
29.619610000000002
 21
18.029565000000002
  0
LINE
  8
_0-2____C_ä___1
  6
CONTINUOUS
 62
    7
 10
29.619610000000002
 20
18.029565000000002
 11
29.546366000000003
 21
18.036730000000002
  0
LINE
  8
_0-2____C_ä___1
  6
CONTINUOUS
 62
    7
 10
29.546366000000003
 20
18.036730000000002
 11
29.506160000000001
 21
18.081656000000002
  0
LINE
  8
_0-2____C_ä___1
  6
CONTINUOUS
 62
    7
 10
29.577026000000004
 20
18.005932000000001
 11
29.579474000000001
 21
17.989464000000002
  0
LINE
  8
_0-2____C_ä___1
  6
CONTINUOUS
 62
    7
 10
29.579474000000001
 20
17.989464000000002
 11
29.605485000000002
 21
17.982367
  0
LINE
  8
_0-2____C_ä___1
  6
CONTINUOUS
 62
    7
 10
29.605485000000002
 20
17.982367
 11
29.607827000000004
 21
18.005932000000001
  0
LINE
  8
_0-2____C_ä___1
  6
CONTINUOUS
 62
    7
 10
29.607827000000004
 20
18.005932000000001
 11
29.577026000000004
 21
18.005932000000001
  0
LINE
  8
_0-2____C_ä___1
  6
CONTINUOUS
 62
    7
 10
29.662190000000006
 20
18.010687999999998
 11
29.643310000000003
 21
17.977544000000002
  0
LINE
  8
_0-2____C_ä___1
  6
CONTINUOUS
 62
    7
 10
29.643310000000003
 20
17.977544000000002
 11
29.652749999999997
 21
17.963418999999998
  0
LINE
  8
_0-2____C_ä___1
  6
CONTINUOUS
 62
    7
 10
29.652749999999997
 20
17.963418999999998
 11
29.676383000000001
 21
17.970446000000003
  0
LINE
  8
_0-2____C_ä___1
  6
CONTINUOUS
 62
    7
 10
29.676383000000001
 20
17.970446000000003
 11
29.688164999999998
 21
17.99174
  0
LINE
  8
_0-2____C_ä___1
  6
CONTINUOUS
 62
    7
 10
29.688164999999998
 20
17.99174
 11
29.688164999999998
 21
18.015440000000002
  0
LINE
  8
_0-2____C_ä___1
  6
CONTINUOUS
 62
    7
 10
29.688164999999998
 20
18.015440000000002
 11
29.662190000000006
 21
18.010687999999998
  0
LINE
  8
_0-2____C_ä___1
  6
CONTINUOUS
 62
    7
 10
29.700085999999999
 20
18.029565000000002
 11
29.707113
 21
17.99174
  0
LINE
  8
_0-2____C_ä___1
  6
CONTINUOUS
 62
    7
 10
29.707113
 20
17.99174
 11
29.718930999999998
 21
17.965761000000001
  0
LINE
  8
_0-2____C_ä___1
  6
CONTINUOUS
 62
    7
 10
29.718930999999998
 20
17.965761000000001
 11
29.730781000000004
 21
17.996492
  0
LINE
  8
_0-2____C_ä___1
  6
CONTINUOUS
 62
    7
 10
29.730781000000004
 20
17.996492
 11
29.749696999999998
 21
18.003519000000001
  0
LINE
  8
_0-2____C_ä___1
  6
CONTINUOUS
 62
    7
 10
29.749696999999998
 20
18.003519000000001
 11
29.770987000000005
 21
18.010687999999998
  0
LINE
  8
_0-2____C_ä___1
  6
CONTINUOUS
 62
    7
 10
29.770987000000005
 20
18.010687999999998
 11
29.789797
 21
18.095780999999999
  0
LINE
  8
_0-2____C_ä___1
  6
CONTINUOUS
 62
    7
 10
29.789797
 20
18.095780999999999
 11
29.756724000000006
 21
18.055610000000001
  0
LINE
  8
_0-2____C_ä___1
  6
CONTINUOUS
 62
    7
 10
29.756724000000006
 20
18.055610000000001
 11
29.742634000000006
 21
18.036730000000002
  0
LINE
  8
_0-2____C_ä___1
  6
CONTINUOUS
 62
    7
 10
29.742634000000006
 20
18.036730000000002
 11
29.730781000000004
 21
18.024880000000003
  0
LINE
  8
_0-2____C_ä___1
  6
CONTINUOUS
 62
    7
 10
29.730781000000004
 20
18.024880000000003
 11
29.700085999999999
 21
18.029565000000002
  0
LINE
  8
_0-2____C_ä___1
  6
CONTINUOUS
 62
    7
 10
29.747319000000001
 20
18.315714000000003
 11
29.747319000000001
 21
18.275547
  0
LINE
  8
_0-2____C_ä___1
  6
CONTINUOUS
 62
    7
 10
29.747319000000001
 20
18.275547
 11
29.815910000000002
 21
18.273134000000002
  0
LINE
  8
_0-2____C_ä___1
  6
CONTINUOUS
 62
    7
 10
29.815910000000002
 20
18.273134000000002
 11
29.818252999999999
 21
18.206921000000001
  0
LINE
  8
_0-2____C_ä___1
  6
CONTINUOUS
 62
    7
 10
29.818252999999999
 20
18.206921000000001
 11
29.827693
 21
18.211606
  0
LINE
  8
_0-2____C_ä___1
  6
CONTINUOUS
 62
    7
 10
29.827693
 20
18.211606
 11
29.827693
 21
18.296766000000002
  0
LINE
  8
_0-2____C_ä___1
  6
CONTINUOUS
 62
    7
 10
29.827693
 20
18.296766000000002
 11
29.766232000000002
 21
18.301455000000001
  0
LINE
  8
_0-2____C_ä___1
  6
CONTINUOUS
 62
    7
 10
29.766232000000002
 20
18.301455000000001
 11
29.759134000000003
 21
18.294424000000003
  0
LINE
  8
_0-2____C_ä___1
  6
CONTINUOUS
 62
    7
 10
29.759134000000003
 20
18.294424000000003
 11
29.747319000000001
 21
18.315714000000003
  0
LINE
  8
_0-2____C_ä___1
  6
CONTINUOUS
 62
    7
 10
29.759134000000003
 20
18.490657000000002
 11
29.754449000000001
 21
18.403154000000001
  0
LINE
  8
_0-2____C_ä___1
  6
CONTINUOUS
 62
    7
 10
29.754449000000001
 20
18.403154000000001
 11
29.768574000000001
 21
18.384273000000004
  0
LINE
  8
_0-2____C_ä___1
  6
CONTINUOUS
 62
    7
 10
29.768574000000001
 20
18.384273000000004
 11
29.780424
 21
18.386615000000003
  0
LINE
  8
_0-2____C_ä___1
  6
CONTINUOUS
 62
    7
 10
29.780424
 20
18.386615000000003
 11
29.787522000000003
 21
18.367668000000002
  0
LINE
  8
_0-2____C_ä___1
  6
CONTINUOUS
 62
    7
 10
29.787522000000003
 20
18.367668000000002
 11
29.801718000000001
 21
18.372490000000003
  0
LINE
  8
_0-2____C_ä___1
  6
CONTINUOUS
 62
    7
 10
29.801718000000001
 20
18.372490000000003
 11
29.808780000000002
 21
18.398469000000002
  0
LINE
  8
_0-2____C_ä___1
  6
CONTINUOUS
 62
    7
 10
29.808780000000002
 20
18.398469000000002
 11
29.820594999999997
 21
18.396056000000002
  0
LINE
  8
_0-2____C_ä___1
  6
CONTINUOUS
 62
    7
 10
29.820594999999997
 20
18.396056000000002
 11
29.818252999999999
 21
18.492999000000001
  0
LINE
  8
_0-2____C_ä___1
  6
CONTINUOUS
 62
    7
 10
29.818252999999999
 20
18.492999000000001
 11
29.759134000000003
 21
18.490657000000002
  0
LINE
  8
_0-2____C_ä___1
  6
CONTINUOUS
 62
    7
 10
29.846570000000003
 20
18.490657000000002
 11
29.844228000000001
 21
18.4693
  0
LINE
  8
_0-2____C_ä___1
  6
CONTINUOUS
 62
    7
 10
29.844228000000001
 20
18.4693
 11
29.834791000000003
 21
18.4693
  0
LINE
  8
_0-2____C_ä___1
  6
CONTINUOUS
 62
    7
 10
29.834791000000003
 20
18.4693
 11
29.825315000000003
 21
18.344102000000003
  0
LINE
  8
_0-2____C_ä___1
  6
CONTINUOUS
 62
    7
 10
29.825315000000003
 20
18.344102000000003
 11
29.827693
 21
18.322812000000003
  0
LINE
  8
_0-2____C_ä___1
  6
CONTINUOUS
 62
    7
 10
29.827693
 20
18.322812000000003
 11
29.849018000000001
 21
18.325154000000001
  0
LINE
  8
_0-2____C_ä___1
  6
CONTINUOUS
 62
    7
 10
29.849018000000001
 20
18.325154000000001
 11
29.853703000000003
 21
18.412524000000001
  0
LINE
  8
_0-2____C_ä___1
  6
CONTINUOUS
 62
    7
 10
29.853703000000003
 20
18.412524000000001
 11
29.863108
 21
18.424372999999999
  0
LINE
  8
_0-2____C_ä___1
  6
CONTINUOUS
 62
    7
 10
29.863108
 20
18.424372999999999
 11
29.863108
 21
18.462202000000001
  0
LINE
  8
_0-2____C_ä___1
  6
CONTINUOUS
 62
    7
 10
29.863108
 20
18.462202000000001
 11
29.896181000000002
 21
18.467024000000002
  0
LINE
  8
_0-2____C_ä___1
  6
CONTINUOUS
 62
    7
 10
29.896181000000002
 20
18.467024000000002
 11
29.898626000000004
 21
18.490657000000002
  0
LINE
  8
_0-2____C_ä___1
  6
CONTINUOUS
 62
    7
 10
29.898626000000004
 20
18.490657000000002
 11
29.846570000000003
 21
18.490657000000002
  0
LINE
  8
_0-2____C_ä___1
  6
CONTINUOUS
 62
    7
 10
29.910444000000002
 20
18.322812000000003
 11
29.910444000000002
 21
18.299109000000001
  0
LINE
  8
_0-2____C_ä___1
  6
CONTINUOUS
 62
    7
 10
29.910444000000002
 20
18.299109000000001
 11
29.882091000000003
 21
18.299109000000001
  0
LINE
  8
_0-2____C_ä___1
  6
CONTINUOUS
 62
    7
 10
29.882091000000003
 20
18.299109000000001
 11
29.874957999999999
 21
18.206921000000001
  0
LINE
  8
_0-2____C_ä___1
  6
CONTINUOUS
 62
    7
 10
29.874957999999999
 20
18.206921000000001
 11
29.865553000000002
 21
18.209263
  0
LINE
  8
_0-2____C_ä___1
  6
CONTINUOUS
 62
    7
 10
29.865553000000002
 20
18.209263
 11
29.865553000000002
 21
18.159652000000001
  0
LINE
  8
_0-2____C_ä___1
  6
CONTINUOUS
 62
    7
 10
29.865553000000002
 20
18.159652000000001
 11
29.849018000000001
 21
18.159652000000001
  0
LINE
  8
_0-2____C_ä___1
  6
CONTINUOUS
 62
    7
 10
29.849018000000001
 20
18.159652000000001
 11
29.849018000000001
 21
18.131334000000003
  0
LINE
  8
_0-2____C_ä___1
  6
CONTINUOUS
 62
    7
 10
29.849018000000001
 20
18.131334000000003
 11
29.844228000000001
 21
18.095780999999999
  0
LINE
  8
_0-2____C_ä___1
  6
CONTINUOUS
 62
    7
 10
29.844228000000001
 20
18.095780999999999
 11
29.865553000000002
 21
18.100533000000002
  0
LINE
  8
_0-2____C_ä___1
  6
CONTINUOUS
 62
    7
 10
29.865553000000002
 20
18.100533000000002
 11
29.860833000000003
 21
18.060295
  0
LINE
  8
_0-2____C_ä___1
  6
CONTINUOUS
 62
    7
 10
29.860833000000003
 20
18.060295
 11
29.846570000000003
 21
18.060295
  0
LINE
  8
_0-2____C_ä___1
  6
CONTINUOUS
 62
    7
 10
29.846570000000003
 20
18.060295
 11
29.839542999999999
 21
18.039076000000001
  0
LINE
  8
_0-2____C_ä___1
  6
CONTINUOUS
 62
    7
 10
29.839542999999999
 20
18.039076000000001
 11
29.834791000000003
 21
18.060295
  0
LINE
  8
_0-2____C_ä___1
  6
CONTINUOUS
 62
    7
 10
29.834791000000003
 20
18.060295
 11
29.811225000000004
 21
18.062774999999998
  0
LINE
  8
_0-2____C_ä___1
  6
CONTINUOUS
 62
    7
 10
29.811225000000004
 20
18.062774999999998
 11
29.811225000000004
 21
18.093439
  0
LINE
  8
_0-2____C_ä___1
  6
CONTINUOUS
 62
    7
 10
29.811225000000004
 20
18.093439
 11
29.830035000000006
 21
18.100533000000002
  0
LINE
  8
_0-2____C_ä___1
  6
CONTINUOUS
 62
    7
 10
29.830035000000006
 20
18.100533000000002
 11
29.834791000000003
 21
18.131334000000003
  0
LINE
  8
_0-2____C_ä___1
  6
CONTINUOUS
 62
    7
 10
29.834791000000003
 20
18.131334000000003
 11
29.813497000000002
 21
18.128921000000002
  0
LINE
  8
_0-2____C_ä___1
  6
CONTINUOUS
 62
    7
 10
29.813497000000002
 20
18.128921000000002
 11
29.811225000000004
 21
18.173848000000003
  0
LINE
  8
_0-2____C_ä___1
  6
CONTINUOUS
 62
    7
 10
29.811225000000004
 20
18.173848000000003
 11
29.841853000000004
 21
18.176190000000002
  0
LINE
  8
_0-2____C_ä___1
  6
CONTINUOUS
 62
    7
 10
29.841853000000004
 20
18.176190000000002
 11
29.846570000000003
 21
18.292081000000003
  0
LINE
  8
_0-2____C_ä___1
  6
CONTINUOUS
 62
    7
 10
29.846570000000003
 20
18.292081000000003
 11
29.858388000000005
 21
18.292081000000003
  0
LINE
  8
_0-2____C_ä___1
  6
CONTINUOUS
 62
    7
 10
29.858388000000005
 20
18.292081000000003
 11
29.858388000000005
 21
18.322812000000003
  0
LINE
  8
_0-2____C_ä___1
  6
CONTINUOUS
 62
    7
 10
29.858388000000005
 20
18.322812000000003
 11
29.910444000000002
 21
18.322812000000003
  0
LINE
  8
_0-2____C_ä___1
  6
CONTINUOUS
 62
    7
 10
29.749696999999998
 20
18.370081000000003
 11
29.752003999999999
 21
18.341693000000003
  0
LINE
  8
_0-2____C_ä___1
  6
CONTINUOUS
 62
    7
 10
29.787522000000003
 20
18.344102000000003
 11
29.787522000000003
 21
18.325154000000001
  0
LINE
  8
_0-2____C_ä___1
  6
CONTINUOUS
 62
    7
 10
29.737914000000004
 20
18.247088000000002
 11
29.735466000000002
 21
18.228211000000002
  0
LINE
  8
_0-2____C_ä___1
  6
CONTINUOUS
 62
    7
 10
29.785113000000003
 20
18.223455000000001
 11
29.785113000000003
 21
18.190382000000003
  0
LINE
  8
_0-2____C_ä___1
  6
CONTINUOUS
 62
    7
 10
29.785113000000003
 20
18.152625
 11
29.785113000000003
 21
18.124169000000002
  0
LINE
  8
_0-2____C_ä___1
  6
CONTINUOUS
 62
    7
 10
29.896181000000002
 20
18.221046000000001
 11
29.896181000000002
 21
18.202165000000004
  0
LINE
  8
_0-2____C_ä___1
  6
CONTINUOUS
 62
    7
 10
29.898626000000004
 20
18.178533000000002
 11
29.898626000000004
 21
18.154900000000001
  0
LINE
  8
_0-2____C_ä___1
  6
CONTINUOUS
 62
    7
 10
29.898626000000004
 20
18.126579000000003
 11
29.898626000000004
 21
18.100533000000002
  0
LINE
  8
_0-2____C_ä___1
  6
CONTINUOUS
 62
    7
 10
29.650337000000004
 20
18.100533000000002
 11
29.648065000000003
 21
18.083999000000002
  0
LINE
  8
_0-2____C_ä___1
  6
CONTINUOUS
 62
    7
 10
29.884398000000001
 20
18.076834000000002
 11
29.882091000000003
 21
18.055610000000001
  0
LINE
  8
_0-2____C_ä___1
  6
CONTINUOUS
 62
    7
 10
29.882091000000003
 20
18.055610000000001
 11
29.908102000000003
 21
18.053267999999999
  0
LINE
  8
_0-2____C_ä___1
  6
CONTINUOUS
 62
    7
 10
29.908102000000003
 20
18.053267999999999
 11
29.903311000000002
 21
18.020124000000003
  0
LINE
  8
_0-2____C_ä___1
  6
CONTINUOUS
 62
    7
 10
29.903311000000002
 20
18.020124000000003
 11
29.922294000000001
 21
18.029565000000002
  0
LINE
  8
_0-2____C_ä___1
  6
CONTINUOUS
 62
    7
 10
29.922294000000001
 20
18.029565000000002
 11
29.922294000000001
 21
18.083999000000002
  0
LINE
  8
_0-2____C_ä___1
  6
CONTINUOUS
 62
    7
 10
29.922294000000001
 20
18.083999000000002
 11
29.884398000000001
 21
18.076834000000002
  0
LINE
  8
_0-2____C_ä___1
  6
CONTINUOUS
 62
    7
 10
29.759134000000003
 20
17.970446000000003
 11
29.782769999999999
 21
17.970446000000003
  0
LINE
  8
_0-2____C_ä___1
  6
CONTINUOUS
 62
    7
 10
29.796962000000004
 20
17.968174000000001
 11
29.806403000000003
 21
17.968174000000001
  0
LINE
  8
_0-2____C_ä___1
  6
CONTINUOUS
 62
    7
 10
29.806403000000003
 20
17.968174000000001
 11
29.801718000000001
 21
17.956320999999999
  0
LINE
  8
_0-2____C_ä___1
  6
CONTINUOUS
 62
    7
 10
29.832447999999999
 20
18.010687999999998
 11
29.830035000000006
 21
17.984709000000002
  0
LINE
  8
_0-2____C_ä___1
  6
CONTINUOUS
 62
    7
 10
29.830035000000006
 20
17.984709000000002
 11
29.849018000000001
 21
17.984709000000002
  0
LINE
  8
_0-2____C_ä___1
  6
CONTINUOUS
 62
    7
 10
29.849018000000001
 20
17.984709000000002
 11
29.856081000000003
 21
18.005932000000001
  0
LINE
  8
_0-2____C_ä___1
  6
CONTINUOUS
 62
    7
 10
29.856081000000003
 20
18.005932000000001
 11
29.832447999999999
 21
18.010687999999998
  0
LINE
  8
_0-2____C_ä___1
  6
CONTINUOUS
 62
    7
 10
28.717473999999999
 20
20.807833000000002
 11
28.713889000000002
 21
20.794689000000002
  0
LINE
  8
_0-2____C_ä___1
  6
CONTINUOUS
 62
    7
 10
28.713889000000002
 20
20.794689000000002
 11
28.704500000000003
 21
20.785366000000003
  0
LINE
  8
_0-2____C_ä___1
  6
CONTINUOUS
 62
    7
 10
28.704500000000003
 20
20.785366000000003
 11
28.691361999999998
 21
20.781823000000003
  0
LINE
  8
_0-2____C_ä___1
  6
CONTINUOUS
 62
    7
 10
28.691361999999998
 20
20.781823000000003
 11
28.021234
 21
20.781823000000003
  0
LINE
  8
_0-2____C_ä___1
  6
CONTINUOUS
 62
    7
 10
28.021234
 20
20.781823000000003
 11
28.007994000000004
 21
20.785366000000003
  0
LINE
  8
_0-2____C_ä___1
  6
CONTINUOUS
 62
    7
 10
28.007994000000004
 20
20.785366000000003
 11
27.998562
 21
20.794689000000002
  0
LINE
  8
_0-2____C_ä___1
  6
CONTINUOUS
 62
    7
 10
27.998562
 20
20.794689000000002
 11
27.994966000000002
 21
20.807833000000002
  0
LINE
  8
_0-2____C_ä___1
  6
CONTINUOUS
 62
    7
 10
27.994966000000002
 20
20.807833000000002
 11
27.998562
 21
20.821035000000002
  0
LINE
  8
_0-2____C_ä___1
  6
CONTINUOUS
 62
    7
 10
27.998562
 20
20.821035000000002
 11
28.007994000000004
 21
20.830394000000002
  0
LINE
  8
_0-2____C_ä___1
  6
CONTINUOUS
 62
    7
 10
28.007994000000004
 20
20.830394000000002
 11
28.021234
 21
20.833949000000004
  0
LINE
  8
_0-2____C_ä___1
  6
CONTINUOUS
 62
    7
 10
28.021234
 20
20.833949000000004
 11
28.691361999999998
 21
20.833949000000004
  0
LINE
  8
_0-2____C_ä___1
  6
CONTINUOUS
 62
    7
 10
28.691361999999998
 20
20.833949000000004
 11
28.704500000000003
 21
20.830394000000002
  0
LINE
  8
_0-2____C_ä___1
  6
CONTINUOUS
 62
    7
 10
28.704500000000003
 20
20.830394000000002
 11
28.713889000000002
 21
20.821035000000002
  0
LINE
  8
_0-2____C_ä___1
  6
CONTINUOUS
 62
    7
 10
28.713889000000002
 20
20.821035000000002
 11
28.717473999999999
 21
20.807833000000002
  0
LINE
  8
_0-2____C_ä___1
  6
CONTINUOUS
 62
    7
 10
28.377184
 20
18.095023000000001
 11
28.649399000000003
 21
21.173463000000002
  0
LINE
  8
_0-2____C_ä___1
  6
CONTINUOUS
 62
    7
 10
28.047333000000005
 20
21.173463000000002
 11
28.319702000000003
 21
18.095023000000001
  0
LINE
  8
_0-2____C_ä___1
  6
CONTINUOUS
 62
    7
 10
28.371998000000005
 20
21.173463000000002
 11
28.371998000000005
 21
18.079314
  0
LINE
  8
_0-2____C_ä___1
  6
CONTINUOUS
 62
    7
 10
28.371998000000005
 20
18.079314
 11
28.368774999999999
 21
18.067562000000002
  0
LINE
  8
_0-2____C_ä___1
  6
CONTINUOUS
 62
    7
 10
28.368774999999999
 20
18.067562000000002
 11
28.360316000000001
 21
18.059164000000003
  0
LINE
  8
_0-2____C_ä___1
  6
CONTINUOUS
 62
    7
 10
28.360316000000001
 20
18.059164000000003
 11
28.348436
 21
18.055956000000002
  0
LINE
  8
_0-2____C_ä___1
  6
CONTINUOUS
 62
    7
 10
28.348436
 20
18.055956000000002
 11
28.336524000000004
 21
18.059164000000003
  0
LINE
  8
_0-2____C_ä___1
  6
CONTINUOUS
 62
    7
 10
28.336524000000004
 20
18.059164000000003
 11
28.328046999999998
 21
18.067562000000002
  0
LINE
  8
_0-2____C_ä___1
  6
CONTINUOUS
 62
    7
 10
28.328046999999998
 20
18.067562000000002
 11
28.324818
 21
18.079314
  0
LINE
  8
_0-2____C_ä___1
  6
CONTINUOUS
 62
    7
 10
28.324818
 20
18.079314
 11
28.324818
 21
21.173463000000002
  0
LINE
  8
_0-2____C_ä___1
  6
CONTINUOUS
 62
    7
 10
27.213375000000003
 20
20.936407000000003
 11
27.213375000000003
 21
23.461750000000002
  0
LINE
  8
_0-2____C_ä___1
  6
CONTINUOUS
 62
    7
 10
27.213375000000003
 20
23.461750000000002
 11
29.434742999999997
 21
23.461750000000002
  0
LINE
  8
_0-2____C_ä___1
  6
CONTINUOUS
 62
    7
 10
29.434742999999997
 20
23.461750000000002
 11
29.434742999999997
 21
20.927308
  0
LINE
  8
_0-2____C_ä___1
  6
CONTINUOUS
 62
    7
 10
29.434742999999997
 20
20.927308
 11
27.213375000000003
 21
20.936407000000003
  0
LINE
  8
_0-2____C_ä___1
  6
CONTINUOUS
 62
    7
 10
27.246896
 20
21.005100000000002
 11
27.213375000000003
 21
21.005100000000002
  0
LINE
  8
_0-2____C_ä___1
  6
CONTINUOUS
 62
    7
 10
27.213375000000003
 20
21.005100000000002
 11
27.213375000000003
 21
21.040310000000005
  0
LINE
  8
_0-2____C_ä___1
  6
CONTINUOUS
 62
    7
 10
27.213375000000003
 20
21.040310000000005
 11
27.246896
 21
21.040310000000005
  0
LINE
  8
_0-2____C_ä___1
  6
CONTINUOUS
 62
    7
 10
27.246896
 20
21.040310000000005
 11
27.246896
 21
21.005100000000002
  0
LINE
  8
_0-2____C_ä___1
  6
CONTINUOUS
 62
    7
 10
29.095815000000002
 20
21.005100000000002
 11
29.062192
 21
21.005100000000002
  0
LINE
  8
_0-2____C_ä___1
  6
CONTINUOUS
 62
    7
 10
29.062192
 20
21.005100000000002
 11
29.062192
 21
21.040310000000005
  0
LINE
  8
_0-2____C_ä___1
  6
CONTINUOUS
 62
    7
 10
29.062192
 20
21.040310000000005
 11
29.095815000000002
 21
21.040310000000005
  0
LINE
  8
_0-2____C_ä___1
  6
CONTINUOUS
 62
    7
 10
29.095815000000002
 20
21.040310000000005
 11
29.095815000000002
 21
21.005100000000002
  0
LINE
  8
_0-2____C_ä___1
  6
CONTINUOUS
 62
    7
 10
29.423719000000002
 20
23.461750000000002
 11
29.416599000000005
 21
23.502656000000002
  0
LINE
  8
_0-2____C_ä___1
  6
CONTINUOUS
 62
    7
 10
29.416599000000005
 20
23.502656000000002
 11
29.376521000000004
 21
23.605582000000002
  0
LINE
  8
_0-2____C_ä___1
  6
CONTINUOUS
 62
    7
 10
29.376521000000004
 20
23.605582000000002
 11
29.275407000000001
 21
23.740836000000002
  0
LINE
  8
_0-2____C_ä___1
  6
CONTINUOUS
 62
    7
 10
29.275407000000001
 20
23.740836000000002
 11
29.085180000000005
 21
23.878731000000002
  0
LINE
  8
_0-2____C_ä___1
  6
CONTINUOUS
 62
    7
 10
29.085180000000005
 20
23.878731000000002
 11
28.777762000000003
 21
23.989575000000002
  0
LINE
  8
_0-2____C_ä___1
  6
CONTINUOUS
 62
    7
 10
28.777762000000003
 20
23.989575000000002
 11
28.325074999999998
 21
24.043679000000001
  0
LINE
  8
_0-2____C_ä___1
  6
CONTINUOUS
 62
    7
 10
28.325074999999998
 20
24.043679000000001
 11
27.872395000000001
 21
23.989575000000002
  0
LINE
  8
_0-2____C_ä___1
  6
CONTINUOUS
 62
    7
 10
27.872395000000001
 20
23.989575000000002
 11
27.564993000000001
 21
23.878731000000002
  0
LINE
  8
_0-2____C_ä___1
  6
CONTINUOUS
 62
    7
 10
27.564993000000001
 20
23.878731000000002
 11
27.374786999999998
 21
23.740836000000002
  0
LINE
  8
_0-2____C_ä___1
  6
CONTINUOUS
 62
    7
 10
27.374786999999998
 20
23.740836000000002
 11
27.273695
 21
23.605582000000002
  0
LINE
  8
_0-2____C_ä___1
  6
CONTINUOUS
 62
    7
 10
27.273695
 20
23.605582000000002
 11
27.233632999999998
 21
23.502656000000002
  0
LINE
  8
_0-2____C_ä___1
  6
CONTINUOUS
 62
    7
 10
27.233632999999998
 20
23.502656000000002
 11
27.226520000000001
 21
23.461750000000002
  0
LINE
  8
_0-2____C_ä___1
  6
CONTINUOUS
 62
    7
 10
28.207769000000003
 20
23.720083000000002
 11
28.179354000000004
 21
23.731575000000003
  0
LINE
  8
_0-2____C_ä___1
  6
CONTINUOUS
 62
    7
 10
28.179354000000004
 20
23.731575000000003
 11
28.139081000000001
 21
23.776446000000004
  0
LINE
  8
_0-2____C_ä___1
  6
CONTINUOUS
 62
    7
 10
28.139081000000001
 20
23.776446000000004
 11
28.154408000000004
 21
23.870289000000003
  0
LINE
  8
_0-2____C_ä___1
  6
CONTINUOUS
 62
    7
 10
28.154408000000004
 20
23.870289000000003
 11
28.204144000000003
 21
23.955229000000003
  0
LINE
  8
_0-2____C_ä___1
  6
CONTINUOUS
 62
    7
 10
28.204144000000003
 20
23.955229000000003
 11
28.235866000000001
 21
23.997739000000003
  0
LINE
  8
_0-2____C_ä___1
  6
CONTINUOUS
 62
    7
 10
28.235866000000001
 20
23.997739000000003
 11
28.253024
 21
24.017465000000001
  0
LINE
  8
_0-2____C_ä___1
  6
CONTINUOUS
 62
    7
 10
28.253024
 20
24.017465000000001
 11
28.272078
 21
24.029284000000004
  0
LINE
  8
_0-2____C_ä___1
  6
CONTINUOUS
 62
    7
 10
28.272078
 20
24.029284000000004
 11
28.292917000000003
 21
24.028065000000002
  0
LINE
  8
_0-2____C_ä___1
  6
CONTINUOUS
 62
    7
 10
28.292917000000003
 20
24.028065000000002
 11
28.302339000000003
 21
24.015171000000002
  0
LINE
  8
_0-2____C_ä___1
  6
CONTINUOUS
 62
    7
 10
28.302339000000003
 20
24.015171000000002
 11
28.298825000000001
 21
23.938806000000003
  0
LINE
  8
_0-2____C_ä___1
  6
CONTINUOUS
 62
    7
 10
28.298825000000001
 20
23.938806000000003
 11
28.294265000000003
 21
23.837405000000004
  0
LINE
  8
_0-2____C_ä___1
  6
CONTINUOUS
 62
    7
 10
28.294265000000003
 20
23.837405000000004
 11
28.292002000000004
 21
23.786762000000003
  0
LINE
  8
_0-2____C_ä___1
  6
CONTINUOUS
 62
    7
 10
28.292002000000004
 20
23.786762000000003
 11
28.291295000000005
 21
23.766094000000002
  0
LINE
  8
_0-2____C_ä___1
  6
CONTINUOUS
 62
    7
 10
28.291295000000005
 20
23.766094000000002
 11
28.271869000000006
 21
23.730609000000001
  0
LINE
  8
_0-2____C_ä___1
  6
CONTINUOUS
 62
    7
 10
28.271869000000006
 20
23.730609000000001
 11
28.207769000000003
 21
23.720083000000002
  0
LINE
  8
_0-2____C_ä___1
  6
CONTINUOUS
 62
    7
 10
27.793343
 20
23.773172000000002
 11
27.794682000000002
 21
23.769459000000001
  0
LINE
  8
_0-2____C_ä___1
  6
CONTINUOUS
 62
    7
 10
27.794682000000002
 20
23.769459000000001
 11
27.798613000000003
 21
23.761336000000004
  0
LINE
  8
_0-2____C_ä___1
  6
CONTINUOUS
 62
    7
 10
27.798613000000003
 20
23.761336000000004
 11
27.805006000000006
 21
23.753329000000004
  0
LINE
  8
_0-2____C_ä___1
  6
CONTINUOUS
 62
    7
 10
27.805006000000006
 20
23.753329000000004
 11
27.837665000000001
 21
23.735471000000004
  0
LINE
  8
_0-2____C_ä___1
  6
CONTINUOUS
 62
    7
 10
27.837665000000001
 20
23.735471000000004
 11
27.887531000000003
 21
23.732864000000003
  0
LINE
  8
_0-2____C_ä___1
  6
CONTINUOUS
 62
    7
 10
27.887531000000003
 20
23.732864000000003
 11
27.950957000000002
 21
23.763662000000004
  0
LINE
  8
_0-2____C_ä___1
  6
CONTINUOUS
 62
    7
 10
27.950957000000002
 20
23.763662000000004
 11
28.040900000000001
 21
23.844340000000003
  0
LINE
  8
_0-2____C_ä___1
  6
CONTINUOUS
 62
    7
 10
28.040900000000001
 20
23.844340000000003
 11
28.123134
 21
23.930784000000003
  0
LINE
  8
_0-2____C_ä___1
  6
CONTINUOUS
 62
    7
 10
28.123134
 20
23.930784000000003
 11
28.192166000000004
 21
24.004010000000001
  0
LINE
  8
_0-2____C_ä___1
  6
CONTINUOUS
 62
    7
 10
28.192166000000004
 20
24.004010000000001
 11
28.193864000000005
 21
24.021221000000004
  0
LINE
  8
_0-2____C_ä___1
  6
CONTINUOUS
 62
    7
 10
28.193864000000005
 20
24.021221000000004
 11
28.162572000000001
 21
24.021146000000002
  0
LINE
  8
_0-2____C_ä___1
  6
CONTINUOUS
 62
    7
 10
28.162572000000001
 20
24.021146000000002
 11
28.131047000000002
 21
24.013552000000004
  0
LINE
  8
_0-2____C_ä___1
  6
CONTINUOUS
 62
    7
 10
28.131047000000002
 20
24.013552000000004
 11
28.028007000000002
 21
23.970693000000004
  0
LINE
  8
_0-2____C_ä___1
  6
CONTINUOUS
 62
    7
 10
28.028007000000002
 20
23.970693000000004
 11
27.863690000000005
 21
23.879767000000001
  0
LINE
  8
_0-2____C_ä___1
  6
CONTINUOUS
 62
    7
 10
27.863690000000005
 20
23.879767000000001
 11
27.793343
 21
23.773172000000002
  0
LINE
  8
_0-2____C_ä___1
  6
CONTINUOUS
 62
    7
 10
27.983152000000004
 20
23.987697000000004
 11
27.919679000000002
 21
23.954863000000003
  0
LINE
  8
_0-2____C_ä___1
  6
CONTINUOUS
 62
    7
 10
27.919679000000002
 20
23.954863000000003
 11
27.783255000000004
 21
23.878582000000002
  0
LINE
  8
_0-2____C_ä___1
  6
CONTINUOUS
 62
    7
 10
27.783255000000004
 20
23.878582000000002
 11
27.654867000000003
 21
23.792187000000002
  0
LINE
  8
_0-2____C_ä___1
  6
CONTINUOUS
 62
    7
 10
27.654867000000003
 20
23.792187000000002
 11
27.580361
 21
23.745915000000004
  0
LINE
  8
_0-2____C_ä___1
  6
CONTINUOUS
 62
    7
 10
27.580361
 20
23.745915000000004
 11
27.520348000000002
 21
23.727923000000004
  0
LINE
  8
_0-2____C_ä___1
  6
CONTINUOUS
 62
    7
 10
27.520348000000002
 20
23.727923000000004
 11
27.490744000000003
 21
23.729848000000004
  0
LINE
  8
_0-2____C_ä___1
  6
CONTINUOUS
 62
    7
 10
27.490744000000003
 20
23.729848000000004
 11
27.476177000000003
 21
23.744639000000003
  0
LINE
  8
_0-2____C_ä___1
  6
CONTINUOUS
 62
    7
 10
27.476177000000003
 20
23.744639000000003
 11
27.478492000000003
 21
23.775958000000003
  0
LINE
  8
_0-2____C_ä___1
  6
CONTINUOUS
 62
    7
 10
27.478492000000003
 20
23.775958000000003
 11
27.539526000000002
 21
23.830996000000003
  0
LINE
  8
_0-2____C_ä___1
  6
CONTINUOUS
 62
    7
 10
27.539526000000002
 20
23.830996000000003
 11
27.693668000000002
 21
23.903129000000003
  0
LINE
  8
_0-2____C_ä___1
  6
CONTINUOUS
 62
    7
 10
27.693668000000002
 20
23.903129000000003
 11
27.870722000000001
 21
23.964508000000002
  0
LINE
  8
_0-2____C_ä___1
  6
CONTINUOUS
 62
    7
 10
27.870722000000001
 20
23.964508000000002
 11
27.955367000000003
 21
23.990452000000001
  0
LINE
  8
_0-2____C_ä___1
  6
CONTINUOUS
 62
    7
 10
27.955367000000003
 20
23.990452000000001
 11
27.967818000000001
 21
23.994975000000004
  0
LINE
  8
_0-2____C_ä___1
  6
CONTINUOUS
 62
    7
 10
27.967818000000001
 20
23.994975000000004
 11
27.986444000000002
 21
23.998885000000001
  0
LINE
  8
_0-2____C_ä___1
  6
CONTINUOUS
 62
    7
 10
27.986444000000002
 20
23.998885000000001
 11
27.983152000000004
 21
23.987697000000004
  0
LINE
  8
_0-2____C_ä___1
  6
CONTINUOUS
 62
    7
 10
28.473870000000002
 20
23.720083000000002
 11
28.502282000000005
 21
23.731575000000003
  0
LINE
  8
_0-2____C_ä___1
  6
CONTINUOUS
 62
    7
 10
28.502282000000005
 20
23.731575000000003
 11
28.542552999999998
 21
23.776446000000004
  0
LINE
  8
_0-2____C_ä___1
  6
CONTINUOUS
 62
    7
 10
28.542552999999998
 20
23.776446000000004
 11
28.527235000000005
 21
23.870289000000003
  0
LINE
  8
_0-2____C_ä___1
  6
CONTINUOUS
 62
    7
 10
28.527235000000005
 20
23.870289000000003
 11
28.477521000000003
 21
23.955229000000003
  0
LINE
  8
_0-2____C_ä___1
  6
CONTINUOUS
 62
    7
 10
28.477521000000003
 20
23.955229000000003
 11
28.445783000000002
 21
23.997739000000003
  0
LINE
  8
_0-2____C_ä___1
  6
CONTINUOUS
 62
    7
 10
28.445783000000002
 20
23.997739000000003
 11
28.428704
 21
24.017465000000001
  0
LINE
  8
_0-2____C_ä___1
  6
CONTINUOUS
 62
    7
 10
28.428704
 20
24.017465000000001
 11
28.409634
 21
24.029284000000004
  0
LINE
  8
_0-2____C_ä___1
  6
CONTINUOUS
 62
    7
 10
28.409634
 20
24.029284000000004
 11
28.388807000000003
 21
24.028065000000002
  0
LINE
  8
_0-2____C_ä___1
  6
CONTINUOUS
 62
    7
 10
28.388807000000003
 20
24.028065000000002
 11
28.379509000000002
 21
24.015171000000002
  0
LINE
  8
_0-2____C_ä___1
  6
CONTINUOUS
 62
    7
 10
28.379509000000002
 20
24.015171000000002
 11
28.382854000000005
 21
23.938806000000003
  0
LINE
  8
_0-2____C_ä___1
  6
CONTINUOUS
 62
    7
 10
28.382854000000005
 20
23.938806000000003
 11
28.387425000000004
 21
23.837405000000004
  0
LINE
  8
_0-2____C_ä___1
  6
CONTINUOUS
 62
    7
 10
28.387425000000004
 20
23.837405000000004
 11
28.389724999999999
 21
23.786762000000003
  0
LINE
  8
_0-2____C_ä___1
  6
CONTINUOUS
 62
    7
 10
28.389724999999999
 20
23.786762000000003
 11
28.390411
 21
23.766094000000002
  0
LINE
  8
_0-2____C_ä___1
  6
CONTINUOUS
 62
    7
 10
28.390411
 20
23.766094000000002
 11
28.409794999999999
 21
23.730609000000001
  0
LINE
  8
_0-2____C_ä___1
  6
CONTINUOUS
 62
    7
 10
28.409794999999999
 20
23.730609000000001
 11
28.473870000000002
 21
23.720083000000002
  0
LINE
  8
_0-2____C_ä___1
  6
CONTINUOUS
 62
    7
 10
28.894209000000004
 20
23.773172000000002
 11
28.892876999999999
 21
23.769459000000001
  0
LINE
  8
_0-2____C_ä___1
  6
CONTINUOUS
 62
    7
 10
28.892876999999999
 20
23.769459000000001
 11
28.888970999999998
 21
23.761336000000004
  0
LINE
  8
_0-2____C_ä___1
  6
CONTINUOUS
 62
    7
 10
28.888970999999998
 20
23.761336000000004
 11
28.882631000000003
 21
23.753329000000004
  0
LINE
  8
_0-2____C_ä___1
  6
CONTINUOUS
 62
    7
 10
28.882631000000003
 20
23.753329000000004
 11
28.850033000000003
 21
23.735471000000004
  0
LINE
  8
_0-2____C_ä___1
  6
CONTINUOUS
 62
    7
 10
28.850033000000003
 20
23.735471000000004
 11
28.800162999999998
 21
23.732864000000003
  0
LINE
  8
_0-2____C_ä___1
  6
CONTINUOUS
 62
    7
 10
28.800162999999998
 20
23.732864000000003
 11
28.736696999999999
 21
23.763662000000004
  0
LINE
  8
_0-2____C_ä___1
  6
CONTINUOUS
 62
    7
 10
28.736696999999999
 20
23.763662000000004
 11
28.646697000000003
 21
23.844340000000003
  0
LINE
  8
_0-2____C_ä___1
  6
CONTINUOUS
 62
    7
 10
28.646697000000003
 20
23.844340000000003
 11
28.564481000000001
 21
23.930784000000003
  0
LINE
  8
_0-2____C_ä___1
  6
CONTINUOUS
 62
    7
 10
28.564481000000001
 20
23.930784000000003
 11
28.495471000000006
 21
24.004010000000001
  0
LINE
  8
_0-2____C_ä___1
  6
CONTINUOUS
 62
    7
 10
28.495471000000006
 20
24.004010000000001
 11
28.493702000000003
 21
24.021221000000004
  0
LINE
  8
_0-2____C_ä___1
  6
CONTINUOUS
 62
    7
 10
28.493702000000003
 20
24.021221000000004
 11
28.524952000000003
 21
24.021146000000002
  0
LINE
  8
_0-2____C_ä___1
  6
CONTINUOUS
 62
    7
 10
28.524952000000003
 20
24.021146000000002
 11
28.556417
 21
24.013552000000004
  0
LINE
  8
_0-2____C_ä___1
  6
CONTINUOUS
 62
    7
 10
28.556417
 20
24.013552000000004
 11
28.659563000000006
 21
23.970693000000004
  0
LINE
  8
_0-2____C_ä___1
  6
CONTINUOUS
 62
    7
 10
28.659563000000006
 20
23.970693000000004
 11
28.823903999999999
 21
23.879767000000001
  0
LINE
  8
_0-2____C_ä___1
  6
CONTINUOUS
 62
    7
 10
28.823903999999999
 20
23.879767000000001
 11
28.894209000000004
 21
23.773172000000002
  0
LINE
  8
_0-2____C_ä___1
  6
CONTINUOUS
 62
    7
 10
28.704383000000004
 20
23.987697000000004
 11
28.767849999999999
 21
23.954863000000003
  0
LINE
  8
_0-2____C_ä___1
  6
CONTINUOUS
 62
    7
 10
28.767849999999999
 20
23.954863000000003
 11
28.904270000000004
 21
23.878582000000002
  0
LINE
  8
_0-2____C_ä___1
  6
CONTINUOUS
 62
    7
 10
28.904270000000004
 20
23.878582000000002
 11
29.032668000000001
 21
23.792187000000002
  0
LINE
  8
_0-2____C_ä___1
  6
CONTINUOUS
 62
    7
 10
29.032668000000001
 20
23.792187000000002
 11
29.107207000000002
 21
23.745915000000004
  0
LINE
  8
_0-2____C_ä___1
  6
CONTINUOUS
 62
    7
 10
29.107207000000002
 20
23.745915000000004
 11
29.167232000000002
 21
23.727923000000004
  0
LINE
  8
_0-2____C_ä___1
  6
CONTINUOUS
 62
    7
 10
29.167232000000002
 20
23.727923000000004
 11
29.196893000000003
 21
23.729848000000004
  0
LINE
  8
_0-2____C_ä___1
  6
CONTINUOUS
 62
    7
 10
29.196893000000003
 20
23.729848000000004
 11
29.211425000000006
 21
23.744639000000003
  0
LINE
  8
_0-2____C_ä___1
  6
CONTINUOUS
 62
    7
 10
29.211425000000006
 20
23.744639000000003
 11
29.209121
 21
23.775958000000003
  0
LINE
  8
_0-2____C_ä___1
  6
CONTINUOUS
 62
    7
 10
29.209121
 20
23.775958000000003
 11
29.148111
 21
23.830996000000003
  0
LINE
  8
_0-2____C_ä___1
  6
CONTINUOUS
 62
    7
 10
29.148111
 20
23.830996000000003
 11
28.993936000000005
 21
23.903129000000003
  0
LINE
  8
_0-2____C_ä___1
  6
CONTINUOUS
 62
    7
 10
28.993936000000005
 20
23.903129000000003
 11
28.816825000000001
 21
23.964508000000002
  0
LINE
  8
_0-2____C_ä___1
  6
CONTINUOUS
 62
    7
 10
28.816825000000001
 20
23.964508000000002
 11
28.732150000000004
 21
23.990452000000001
  0
LINE
  8
_0-2____C_ä___1
  6
CONTINUOUS
 62
    7
 10
28.732150000000004
 20
23.990452000000001
 11
28.719699000000006
 21
23.994975000000004
  0
LINE
  8
_0-2____C_ä___1
  6
CONTINUOUS
 62
    7
 10
28.719699000000006
 20
23.994975000000004
 11
28.701078000000003
 21
23.998885000000001
  0
LINE
  8
_0-2____C_ä___1
  6
CONTINUOUS
 62
    7
 10
28.701078000000003
 20
23.998885000000001
 11
28.704383000000004
 21
23.987697000000004
  0
LINE
  8
_0-2____C_ä___1
  6
CONTINUOUS
 62
    7
 10
28.274794000000004
 20
23.301070000000003
 11
28.051587000000001
 21
23.301070000000003
  0
LINE
  8
_0-2____C_ä___1
  6
CONTINUOUS
 62
    7
 10
28.051587000000001
 20
23.301070000000003
 11
28.054223000000004
 21
23.077225000000002
  0
LINE
  8
_0-2____C_ä___1
  6
CONTINUOUS
 62
    7
 10
28.054223000000004
 20
23.077225000000002
 11
28.277447000000002
 21
23.077225000000002
  0
LINE
  8
_0-2____C_ä___1
  6
CONTINUOUS
 62
    7
 10
28.277447000000002
 20
23.077225000000002
 11
28.274794000000004
 21
23.301070000000003
  0
LINE
  8
_0-2____C_ä___1
  6
CONTINUOUS
 62
    7
 10
28.065420000000003
 20
22.134217000000003
 11
28.068503
 21
21.879899000000002
  0
LINE
  8
_0-2____C_ä___1
  6
CONTINUOUS
 62
    7
 10
28.068503
 20
21.879899000000002
 11
28.291745000000006
 21
21.879899000000002
  0
LINE
  8
_0-2____C_ä___1
  6
CONTINUOUS
 62
    7
 10
28.291745000000006
 20
21.879899000000002
 11
28.28875
 21
22.134217000000003
  0
LINE
  8
_0-2____C_ä___1
  6
CONTINUOUS
 62
    7
 10
28.28875
 20
22.134217000000003
 11
28.065420000000003
 21
22.134217000000003
  0
LINE
  8
_0-2____C_ä___1
  6
CONTINUOUS
 62
    7
 10
28.07038
 20
21.726316000000001
 11
28.073273
 21
21.482592
  0
LINE
  8
_0-2____C_ä___1
  6
CONTINUOUS
 62
    7
 10
28.073273
 20
21.482592
 11
28.296412
 21
21.482592
  0
LINE
  8
_0-2____C_ä___1
  6
CONTINUOUS
 62
    7
 10
28.296412
 20
21.482592
 11
28.293590000000002
 21
21.726316000000001
  0
LINE
  8
_0-2____C_ä___1
  6
CONTINUOUS
 62
    7
 10
28.293590000000002
 20
21.726316000000001
 11
28.07038
 21
21.726316000000001
  0
LINE
  8
_0-2____C_ä___1
  6
CONTINUOUS
 62
    7
 10
28.286905000000004
 20
22.287936000000002
 11
28.283892000000005
 21
22.531572000000001
  0
LINE
  8
_0-2____C_ä___1
  6
CONTINUOUS
 62
    7
 10
28.283892000000005
 20
22.531572000000001
 11
28.060682000000003
 21
22.531572000000001
  0
LINE
  8
_0-2____C_ä___1
  6
CONTINUOUS
 62
    7
 10
28.060682000000003
 20
22.531572000000001
 11
28.063575000000004
 21
22.287936000000002
  0
LINE
  8
_0-2____C_ä___1
  6
CONTINUOUS
 62
    7
 10
28.063575000000004
 20
22.287936000000002
 11
28.286905000000004
 21
22.287936000000002
  0
LINE
  8
_0-2____C_ä___1
  6
CONTINUOUS
 62
    7
 10
28.282135
 20
22.685172000000001
 11
28.279291999999998
 21
22.923625000000001
  0
LINE
  8
_0-2____C_ä___1
  6
CONTINUOUS
 62
    7
 10
28.279291999999998
 20
22.923625000000001
 11
28.056082000000004
 21
22.923625000000001
  0
LINE
  8
_0-2____C_ä___1
  6
CONTINUOUS
 62
    7
 10
28.056082000000004
 20
22.923625000000001
 11
28.058717000000001
 21
22.685172000000001
  0
LINE
  8
_0-2____C_ä___1
  6
CONTINUOUS
 62
    7
 10
28.058717000000001
 20
22.685172000000001
 11
28.282135
 21
22.685172000000001
  0
LINE
  8
_0-2____C_ä___1
  6
CONTINUOUS
 62
    7
 10
28.078130000000002
 20
21.072763000000002
 11
28.301252000000002
 21
21.072763000000002
  0
LINE
  8
_0-2____C_ä___1
  6
CONTINUOUS
 62
    7
 10
28.301252000000002
 20
21.072763000000002
 11
28.298169000000001
 21
21.328904000000001
  0
LINE
  8
_0-2____C_ä___1
  6
CONTINUOUS
 62
    7
 10
28.298169000000001
 20
21.328904000000001
 11
28.075118
 21
21.328904000000001
  0
LINE
  8
_0-2____C_ä___1
  6
CONTINUOUS
 62
    7
 10
28.075118
 20
21.328904000000001
 11
28.078130000000002
 21
21.072763000000002
  0
LINE
  8
_0-2____C_ä___1
  6
CONTINUOUS
 62
    7
 10
28.442727000000005
 20
22.134217000000003
 11
28.445810000000002
 21
21.879899000000002
  0
LINE
  8
_0-2____C_ä___1
  6
CONTINUOUS
 62
    7
 10
28.445810000000002
 20
21.879899000000002
 11
28.674410999999999
 21
21.879899000000002
  0
LINE
  8
_0-2____C_ä___1
  6
CONTINUOUS
 62
    7
 10
28.674410999999999
 20
21.879899000000002
 11
28.671310000000002
 21
22.134217000000003
  0
LINE
  8
_0-2____C_ä___1
  6
CONTINUOUS
 62
    7
 10
28.671310000000002
 20
22.134217000000003
 11
28.442727000000005
 21
22.134217000000003
  0
LINE
  8
_0-2____C_ä___1
  6
CONTINUOUS
 62
    7
 10
28.664695000000002
 20
22.685172000000001
 11
28.662077
 21
22.923625000000001
  0
LINE
  8
_0-2____C_ä___1
  6
CONTINUOUS
 62
    7
 10
28.662077
 20
22.923625000000001
 11
28.433458999999999
 21
22.923625000000001
  0
LINE
  8
_0-2____C_ä___1
  6
CONTINUOUS
 62
    7
 10
28.433458999999999
 20
22.923625000000001
 11
28.436284999999998
 21
22.685172000000001
  0
LINE
  8
_0-2____C_ä___1
  6
CONTINUOUS
 62
    7
 10
28.436284999999998
 20
22.685172000000001
 11
28.664695000000002
 21
22.685172000000001
  0
LINE
  8
_0-2____C_ä___1
  6
CONTINUOUS
 62
    7
 10
28.44774
 20
21.726316000000001
 11
28.450583000000002
 21
21.482592
  0
LINE
  8
_0-2____C_ä___1
  6
CONTINUOUS
 62
    7
 10
28.450583000000002
 20
21.482592
 11
28.679025000000003
 21
21.482592
  0
LINE
  8
_0-2____C_ä___1
  6
CONTINUOUS
 62
    7
 10
28.679025000000003
 20
21.482592
 11
28.676270000000002
 21
21.726316000000001
  0
LINE
  8
_0-2____C_ä___1
  6
CONTINUOUS
 62
    7
 10
28.676270000000002
 20
21.726316000000001
 11
28.44774
 21
21.726316000000001
  0
LINE
  8
_0-2____C_ä___1
  6
CONTINUOUS
 62
    7
 10
28.669553000000004
 20
22.287936000000002
 11
28.666660000000004
 21
22.531572000000001
  0
LINE
  8
_0-2____C_ä___1
  6
CONTINUOUS
 62
    7
 10
28.666660000000004
 20
22.531572000000001
 11
28.438144000000001
 21
22.531572000000001
  0
LINE
  8
_0-2____C_ä___1
  6
CONTINUOUS
 62
    7
 10
28.438144000000001
 20
22.531572000000001
 11
28.44097
 21
22.287936000000002
  0
LINE
  8
_0-2____C_ä___1
  6
CONTINUOUS
 62
    7
 10
28.44097
 20
22.287936000000002
 11
28.669553000000004
 21
22.287936000000002
  0
LINE
  8
_0-2____C_ä___1
  6
CONTINUOUS
 62
    7
 10
28.657460000000004
 20
23.301070000000003
 11
28.428894000000003
 21
23.301070000000003
  0
LINE
  8
_0-2____C_ä___1
  6
CONTINUOUS
 62
    7
 10
28.428894000000003
 20
23.301070000000003
 11
28.431618000000004
 21
23.077225000000002
  0
LINE
  8
_0-2____C_ä___1
  6
CONTINUOUS
 62
    7
 10
28.431618000000004
 20
23.077225000000002
 11
28.660215000000001
 21
23.077225000000002
  0
LINE
  8
_0-2____C_ä___1
  6
CONTINUOUS
 62
    7
 10
28.660215000000001
 20
23.077225000000002
 11
28.657460000000004
 21
23.301070000000003
  0
LINE
  8
_0-2____C_ä___1
  6
CONTINUOUS
 62
    7
 10
28.455441000000004
 20
21.072763000000002
 11
28.68402
 21
21.072763000000002
  0
LINE
  8
_0-2____C_ä___1
  6
CONTINUOUS
 62
    7
 10
28.68402
 20
21.072763000000002
 11
28.680955000000001
 21
21.328904000000001
  0
LINE
  8
_0-2____C_ä___1
  6
CONTINUOUS
 62
    7
 10
28.680955000000001
 20
21.328904000000001
 11
28.452425000000002
 21
21.328904000000001
  0
LINE
  8
_0-2____C_ä___1
  6
CONTINUOUS
 62
    7
 10
28.452425000000002
 20
21.328904000000001
 11
28.455441000000004
 21
21.072763000000002
  0
LINE
  8
_0-2____C_ä___1
  6
CONTINUOUS
 62
    7
 10
27.364272
 20
23.301070000000003
 11
27.25422
 21
23.301070000000003
  0
LINE
  8
_0-2____C_ä___1
  6
CONTINUOUS
 62
    7
 10
27.25422
 20
23.301070000000003
 11
27.256957
 21
23.077225000000002
  0
LINE
  8
_0-2____C_ä___1
  6
CONTINUOUS
 62
    7
 10
27.256957
 20
23.077225000000002
 11
27.366925000000005
 21
23.077225000000002
  0
LINE
  8
_0-2____C_ä___1
  6
CONTINUOUS
 62
    7
 10
27.366925000000005
 20
23.077225000000002
 11
27.364272
 21
23.301070000000003
  0
LINE
  8
_0-2____C_ä___1
  6
CONTINUOUS
 62
    7
 10
27.280763000000004
 20
21.072763000000002
 11
27.390833000000004
 21
21.072763000000002
  0
LINE
  8
_0-2____C_ä___1
  6
CONTINUOUS
 62
    7
 10
27.390833000000004
 20
21.072763000000002
 11
27.38775
 21
21.328904000000001
  0
LINE
  8
_0-2____C_ä___1
  6
CONTINUOUS
 62
    7
 10
27.38775
 20
21.328904000000001
 11
27.277764000000005
 21
21.328904000000001
  0
LINE
  8
_0-2____C_ä___1
  6
CONTINUOUS
 62
    7
 10
27.277764000000005
 20
21.328904000000001
 11
27.280763000000004
 21
21.072763000000002
  0
LINE
  8
_0-2____C_ä___1
  6
CONTINUOUS
 62
    7
 10
27.383065000000002
 20
21.726316000000001
 11
27.272995000000005
 21
21.726316000000001
  0
LINE
  8
_0-2____C_ä___1
  6
CONTINUOUS
 62
    7
 10
27.272995000000005
 20
21.726316000000001
 11
27.275990000000004
 21
21.482592
  0
LINE
  8
_0-2____C_ä___1
  6
CONTINUOUS
 62
    7
 10
27.275990000000004
 20
21.482592
 11
27.385993000000003
 21
21.482592
  0
LINE
  8
_0-2____C_ä___1
  6
CONTINUOUS
 62
    7
 10
27.385993000000003
 20
21.482592
 11
27.383065000000002
 21
21.726316000000001
  0
LINE
  8
_0-2____C_ä___1
  6
CONTINUOUS
 62
    7
 10
27.378140000000002
 20
22.134217000000003
 11
27.268257000000002
 21
22.134217000000003
  0
LINE
  8
_0-2____C_ä___1
  6
CONTINUOUS
 62
    7
 10
27.268257000000002
 20
22.134217000000003
 11
27.27122
 21
21.879899000000002
  0
LINE
  8
_0-2____C_ä___1
  6
CONTINUOUS
 62
    7
 10
27.27122
 20
21.879899000000002
 11
27.381135
 21
21.879899000000002
  0
LINE
  8
_0-2____C_ä___1
  6
CONTINUOUS
 62
    7
 10
27.381135
 20
21.879899000000002
 11
27.378140000000002
 21
22.134217000000003
  0
LINE
  8
_0-2____C_ä___1
  6
CONTINUOUS
 62
    7
 10
27.368785000000003
 20
22.923625000000001
 11
27.258713999999998
 21
22.923625000000001
  0
LINE
  8
_0-2____C_ä___1
  6
CONTINUOUS
 62
    7
 10
27.258713999999998
 20
22.923625000000001
 11
27.261642000000002
 21
22.685172000000001
  0
LINE
  8
_0-2____C_ä___1
  6
CONTINUOUS
 62
    7
 10
27.261642000000002
 20
22.685172000000001
 11
27.37161
 21
22.685172000000001
  0
LINE
  8
_0-2____C_ä___1
  6
CONTINUOUS
 62
    7
 10
27.37161
 20
22.685172000000001
 11
27.368785000000003
 21
22.923625000000001
  0
LINE
  8
_0-2____C_ä___1
  6
CONTINUOUS
 62
    7
 10
27.373452000000004
 20
22.531572000000001
 11
27.263399
 21
22.531572000000001
  0
LINE
  8
_0-2____C_ä___1
  6
CONTINUOUS
 62
    7
 10
27.263399
 20
22.531572000000001
 11
27.266379999999998
 21
22.287936000000002
  0
LINE
  8
_0-2____C_ä___1
  6
CONTINUOUS
 62
    7
 10
27.266379999999998
 20
22.287936000000002
 11
27.376366000000004
 21
22.287936000000002
  0
LINE
  8
_0-2____C_ä___1
  6
CONTINUOUS
 62
    7
 10
27.376366000000004
 20
22.287936000000002
 11
27.373452000000004
 21
22.531572000000001
  0
LINE
  8
_0-2____C_ä___1
  6
CONTINUOUS
 62
    7
 10
27.929268000000004
 20
23.301070000000003
 11
27.722011000000006
 21
23.301070000000003
  0
LINE
  8
_0-2____C_ä___1
  6
CONTINUOUS
 62
    7
 10
27.722011000000006
 20
23.301070000000003
 11
27.724664000000004
 21
23.077225000000002
  0
LINE
  8
_0-2____C_ä___1
  6
CONTINUOUS
 62
    7
 10
27.724664000000004
 20
23.077225000000002
 11
27.931992000000005
 21
23.077225000000002
  0
LINE
  8
_0-2____C_ä___1
  6
CONTINUOUS
 62
    7
 10
27.931992000000005
 20
23.077225000000002
 11
27.929268000000004
 21
23.301070000000003
  0
LINE
  8
_0-2____C_ä___1
  6
CONTINUOUS
 62
    7
 10
27.936659000000006
 20
22.685172000000001
 11
27.933851000000004
 21
22.923625000000001
  0
LINE
  8
_0-2____C_ä___1
  6
CONTINUOUS
 62
    7
 10
27.933851000000004
 20
22.923625000000001
 11
27.726509
 21
22.923625000000001
  0
LINE
  8
_0-2____C_ä___1
  6
CONTINUOUS
 62
    7
 10
27.726509
 20
22.923625000000001
 11
27.729314000000002
 21
22.685172000000001
  0
LINE
  8
_0-2____C_ä___1
  6
CONTINUOUS
 62
    7
 10
27.729314000000002
 20
22.685172000000001
 11
27.936659000000006
 21
22.685172000000001
  0
LINE
  8
_0-2____C_ä___1
  6
CONTINUOUS
 62
    7
 10
27.740786000000003
 20
21.726316000000001
 11
27.743612000000002
 21
21.482592
  0
LINE
  8
_0-2____C_ä___1
  6
CONTINUOUS
 62
    7
 10
27.743612000000002
 20
21.482592
 11
27.950957000000002
 21
21.482592
  0
LINE
  8
_0-2____C_ä___1
  6
CONTINUOUS
 62
    7
 10
27.950957000000002
 20
21.482592
 11
27.948043000000002
 21
21.726316000000001
  0
LINE
  8
_0-2____C_ä___1
  6
CONTINUOUS
 62
    7
 10
27.948043000000002
 20
21.726316000000001
 11
27.740786000000003
 21
21.726316000000001
  0
LINE
  8
_0-2____C_ä___1
  6
CONTINUOUS
 62
    7
 10
27.748642000000004
 20
21.072763000000002
 11
27.955815000000001
 21
21.072763000000002
  0
LINE
  8
_0-2____C_ä___1
  6
CONTINUOUS
 62
    7
 10
27.955815000000001
 20
21.072763000000002
 11
27.952731999999997
 21
21.328904000000001
  0
LINE
  8
_0-2____C_ä___1
  6
CONTINUOUS
 62
    7
 10
27.952731999999997
 20
21.328904000000001
 11
27.745474000000002
 21
21.328904000000001
  0
LINE
  8
_0-2____C_ä___1
  6
CONTINUOUS
 62
    7
 10
27.745474000000002
 20
21.328904000000001
 11
27.748642000000004
 21
21.072763000000002
  0
LINE
  8
_0-2____C_ä___1
  6
CONTINUOUS
 62
    7
 10
27.735928000000001
 20
22.134217000000003
 11
27.738927000000004
 21
21.879899000000002
  0
LINE
  8
_0-2____C_ä___1
  6
CONTINUOUS
 62
    7
 10
27.738927000000004
 20
21.879899000000002
 11
27.946184000000002
 21
21.879899000000002
  0
LINE
  8
_0-2____C_ä___1
  6
CONTINUOUS
 62
    7
 10
27.946184000000002
 20
21.879899000000002
 11
27.943185
 21
22.134217000000003
  0
LINE
  8
_0-2____C_ä___1
  6
CONTINUOUS
 62
    7
 10
27.943185
 20
22.134217000000003
 11
27.735928000000001
 21
22.134217000000003
  0
LINE
  8
_0-2____C_ä___1
  6
CONTINUOUS
 62
    7
 10
27.941344000000001
 20
22.287936000000002
 11
27.938416000000004
 21
22.531572000000001
  0
LINE
  8
_0-2____C_ä___1
  6
CONTINUOUS
 62
    7
 10
27.938416000000004
 20
22.531572000000001
 11
27.731159000000005
 21
22.531572000000001
  0
LINE
  8
_0-2____C_ä___1
  6
CONTINUOUS
 62
    7
 10
27.731159000000005
 20
22.531572000000001
 11
27.734087000000002
 21
22.287936000000002
  0
LINE
  8
_0-2____C_ä___1
  6
CONTINUOUS
 62
    7
 10
27.734087000000002
 20
22.287936000000002
 11
27.941344000000001
 21
22.287936000000002
  0
LINE
  8
_0-2____C_ä___1
  6
CONTINUOUS
 62
    7
 10
27.594457000000002
 20
23.301070000000003
 11
27.445613000000005
 21
23.301070000000003
  0
LINE
  8
_0-2____C_ä___1
  6
CONTINUOUS
 62
    7
 10
27.445613000000005
 20
23.301070000000003
 11
27.448333000000005
 21
23.077225000000002
  0
LINE
  8
_0-2____C_ä___1
  6
CONTINUOUS
 62
    7
 10
27.448333000000005
 20
23.077225000000002
 11
27.597110000000004
 21
23.077225000000002
  0
LINE
  8
_0-2____C_ä___1
  6
CONTINUOUS
 62
    7
 10
27.597110000000004
 20
23.077225000000002
 11
27.594457000000002
 21
23.301070000000003
  0
LINE
  8
_0-2____C_ä___1
  6
CONTINUOUS
 62
    7
 10
27.464370000000002
 20
21.726316000000001
 11
27.467213000000001
 21
21.482592
  0
LINE
  8
_0-2____C_ä___1
  6
CONTINUOUS
 62
    7
 10
27.467213000000001
 20
21.482592
 11
27.616075000000002
 21
21.482592
  0
LINE
  8
_0-2____C_ä___1
  6
CONTINUOUS
 62
    7
 10
27.616075000000002
 20
21.482592
 11
27.613182000000002
 21
21.726316000000001
  0
LINE
  8
_0-2____C_ä___1
  6
CONTINUOUS
 62
    7
 10
27.613182000000002
 20
21.726316000000001
 11
27.464370000000002
 21
21.726316000000001
  0
LINE
  8
_0-2____C_ä___1
  6
CONTINUOUS
 62
    7
 10
27.603552000000004
 20
22.531572000000001
 11
27.454862000000006
 21
22.531572000000001
  0
LINE
  8
_0-2____C_ä___1
  6
CONTINUOUS
 62
    7
 10
27.454862000000006
 20
22.531572000000001
 11
27.457671000000001
 21
22.287936000000002
  0
LINE
  8
_0-2____C_ä___1
  6
CONTINUOUS
 62
    7
 10
27.457671000000001
 20
22.287936000000002
 11
27.606480000000001
 21
22.287936000000002
  0
LINE
  8
_0-2____C_ä___1
  6
CONTINUOUS
 62
    7
 10
27.606480000000001
 20
22.287936000000002
 11
27.603552000000004
 21
22.531572000000001
  0
LINE
  8
_0-2____C_ä___1
  6
CONTINUOUS
 62
    7
 10
27.608325000000004
 20
22.134217000000003
 11
27.459530000000001
 21
22.134217000000003
  0
LINE
  8
_0-2____C_ä___1
  6
CONTINUOUS
 62
    7
 10
27.459530000000001
 20
22.134217000000003
 11
27.462613000000001
 21
21.879899000000002
  0
LINE
  8
_0-2____C_ä___1
  6
CONTINUOUS
 62
    7
 10
27.462613000000001
 20
21.879899000000002
 11
27.611320000000003
 21
21.879899000000002
  0
LINE
  8
_0-2____C_ä___1
  6
CONTINUOUS
 62
    7
 10
27.611320000000003
 20
21.879899000000002
 11
27.608325000000004
 21
22.134217000000003
  0
LINE
  8
_0-2____C_ä___1
  6
CONTINUOUS
 62
    7
 10
27.472138000000001
 20
21.072763000000002
 11
27.621035000000003
 21
21.072763000000002
  0
LINE
  8
_0-2____C_ä___1
  6
CONTINUOUS
 62
    7
 10
27.621035000000003
 20
21.072763000000002
 11
27.618022000000003
 21
21.328904000000001
  0
LINE
  8
_0-2____C_ä___1
  6
CONTINUOUS
 62
    7
 10
27.618022000000003
 20
21.328904000000001
 11
27.469139000000002
 21
21.328904000000001
  0
LINE
  8
_0-2____C_ä___1
  6
CONTINUOUS
 62
    7
 10
27.469139000000002
 20
21.328904000000001
 11
27.472138000000001
 21
21.072763000000002
  0
LINE
  8
_0-2____C_ä___1
  6
CONTINUOUS
 62
    7
 10
27.601794999999999
 20
22.685172000000001
 11
27.598867000000002
 21
22.923625000000001
  0
LINE
  8
_0-2____C_ä___1
  6
CONTINUOUS
 62
    7
 10
27.598867000000002
 20
22.923625000000001
 11
27.450089000000006
 21
22.923625000000001
  0
LINE
  8
_0-2____C_ä___1
  6
CONTINUOUS
 62
    7
 10
27.450089000000006
 20
22.923625000000001
 11
27.452915000000004
 21
22.685172000000001
  0
LINE
  8
_0-2____C_ä___1
  6
CONTINUOUS
 62
    7
 10
27.452915000000004
 20
22.685172000000001
 11
27.601794999999999
 21
22.685172000000001
  0
LINE
  8
_0-2____C_ä___1
  6
CONTINUOUS
 62
    7
 10
28.814901000000006
 20
22.134217000000003
 11
28.818002000000003
 21
21.879899000000002
  0
LINE
  8
_0-2____C_ä___1
  6
CONTINUOUS
 62
    7
 10
28.818002000000003
 20
21.879899000000002
 11
29.025259000000002
 21
21.879899000000002
  0
LINE
  8
_0-2____C_ä___1
  6
CONTINUOUS
 62
    7
 10
29.025259000000002
 20
21.879899000000002
 11
29.022158000000005
 21
22.134217000000003
  0
LINE
  8
_0-2____C_ä___1
  6
CONTINUOUS
 62
    7
 10
29.022158000000005
 20
22.134217000000003
 11
28.814901000000006
 21
22.134217000000003
  0
LINE
  8
_0-2____C_ä___1
  6
CONTINUOUS
 62
    7
 10
29.015544000000002
 20
22.685172000000001
 11
29.012718000000003
 21
22.923625000000001
  0
LINE
  8
_0-2____C_ä___1
  6
CONTINUOUS
 62
    7
 10
29.012718000000003
 20
22.923625000000001
 11
28.805461000000005
 21
22.923625000000001
  0
LINE
  8
_0-2____C_ä___1
  6
CONTINUOUS
 62
    7
 10
28.805461000000005
 20
22.923625000000001
 11
28.808357000000001
 21
22.685172000000001
  0
LINE
  8
_0-2____C_ä___1
  6
CONTINUOUS
 62
    7
 10
28.808357000000001
 20
22.685172000000001
 11
29.015544000000002
 21
22.685172000000001
  0
LINE
  8
_0-2____C_ä___1
  6
CONTINUOUS
 62
    7
 10
28.827615000000005
 20
21.072763000000002
 11
29.034767000000002
 21
21.072763000000002
  0
LINE
  8
_0-2____C_ä___1
  6
CONTINUOUS
 62
    7
 10
29.034767000000002
 20
21.072763000000002
 11
29.031803000000004
 21
21.328904000000001
  0
LINE
  8
_0-2____C_ä___1
  6
CONTINUOUS
 62
    7
 10
29.031803000000004
 20
21.328904000000001
 11
28.824545999999998
 21
21.328904000000001
  0
LINE
  8
_0-2____C_ä___1
  6
CONTINUOUS
 62
    7
 10
28.824545999999998
 20
21.328904000000001
 11
28.827615000000005
 21
21.072763000000002
  0
LINE
  8
_0-2____C_ä___1
  6
CONTINUOUS
 62
    7
 10
29.020299000000001
 20
22.287936000000002
 11
29.017403000000002
 21
22.531572000000001
  0
LINE
  8
_0-2____C_ä___1
  6
CONTINUOUS
 62
    7
 10
29.017403000000002
 20
22.531572000000001
 11
28.810216000000004
 21
22.531572000000001
  0
LINE
  8
_0-2____C_ä___1
  6
CONTINUOUS
 62
    7
 10
28.810216000000004
 20
22.531572000000001
 11
28.813144000000001
 21
22.287936000000002
  0
LINE
  8
_0-2____C_ä___1
  6
CONTINUOUS
 62
    7
 10
28.813144000000001
 20
22.287936000000002
 11
29.020299000000001
 21
22.287936000000002
  0
LINE
  8
_0-2____C_ä___1
  6
CONTINUOUS
 62
    7
 10
29.008240999999998
 20
23.301070000000003
 11
28.800878000000001
 21
23.301070000000003
  0
LINE
  8
_0-2____C_ä___1
  6
CONTINUOUS
 62
    7
 10
28.800878000000001
 20
23.301070000000003
 11
28.803531
 21
23.077225000000002
  0
LINE
  8
_0-2____C_ä___1
  6
CONTINUOUS
 62
    7
 10
28.803531
 20
23.077225000000002
 11
29.010997
 21
23.077225000000002
  0
LINE
  8
_0-2____C_ä___1
  6
CONTINUOUS
 62
    7
 10
29.010997
 20
23.077225000000002
 11
29.008240999999998
 21
23.301070000000003
  0
LINE
  8
_0-2____C_ä___1
  6
CONTINUOUS
 62
    7
 10
28.819759000000001
 20
21.726316000000001
 11
28.822549000000006
 21
21.482592
  0
LINE
  8
_0-2____C_ä___1
  6
CONTINUOUS
 62
    7
 10
28.822549000000006
 20
21.482592
 11
29.029944
 21
21.482592
  0
LINE
  8
_0-2____C_ä___1
  6
CONTINUOUS
 62
    7
 10
29.029944
 20
21.482592
 11
29.027118999999999
 21
21.726316000000001
  0
LINE
  8
_0-2____C_ä___1
  6
CONTINUOUS
 62
    7
 10
29.027118999999999
 20
21.726316000000001
 11
28.819759000000001
 21
21.726316000000001
  0
LINE
  8
_0-2____C_ä___1
  6
CONTINUOUS
 62
    7
 10
29.138671000000002
 20
21.726316000000001
 11
29.141496000000004
 21
21.482592
  0
LINE
  8
_0-2____C_ä___1
  6
CONTINUOUS
 62
    7
 10
29.141496000000004
 20
21.482592
 11
29.258527000000001
 21
21.482592
  0
LINE
  8
_0-2____C_ä___1
  6
CONTINUOUS
 62
    7
 10
29.258527000000001
 20
21.482592
 11
29.255737
 21
21.726316000000001
  0
LINE
  8
_0-2____C_ä___1
  6
CONTINUOUS
 62
    7
 10
29.255737
 20
21.726316000000001
 11
29.138671000000002
 21
21.726316000000001
  0
LINE
  8
_0-2____C_ä___1
  6
CONTINUOUS
 62
    7
 10
29.131989000000001
 20
22.287936000000002
 11
29.248914000000003
 21
22.287936000000002
  0
LINE
  8
_0-2____C_ä___1
  6
CONTINUOUS
 62
    7
 10
29.248914000000003
 20
22.287936000000002
 11
29.246092000000001
 21
22.531572000000001
  0
LINE
  8
_0-2____C_ä___1
  6
CONTINUOUS
 62
    7
 10
29.246092000000001
 20
22.531572000000001
 11
29.129163000000002
 21
22.531572000000001
  0
LINE
  8
_0-2____C_ä___1
  6
CONTINUOUS
 62
    7
 10
29.129163000000002
 20
22.531572000000001
 11
29.131989000000001
 21
22.287936000000002
  0
LINE
  8
_0-2____C_ä___1
  6
CONTINUOUS
 62
    7
 10
29.136811000000002
 20
21.879899000000002
 11
29.253842000000006
 21
21.879899000000002
  0
LINE
  8
_0-2____C_ä___1
  6
CONTINUOUS
 62
    7
 10
29.253842000000006
 20
21.879899000000002
 11
29.250776999999999
 21
22.134217000000003
  0
LINE
  8
_0-2____C_ä___1
  6
CONTINUOUS
 62
    7
 10
29.250776999999999
 20
22.134217000000003
 11
29.133813
 21
22.134217000000003
  0
LINE
  8
_0-2____C_ä___1
  6
CONTINUOUS
 62
    7
 10
29.133813
 20
22.134217000000003
 11
29.136811000000002
 21
21.879899000000002
  0
LINE
  8
_0-2____C_ä___1
  6
CONTINUOUS
 62
    7
 10
29.146456000000001
 20
21.072763000000002
 11
29.263385
 21
21.072763000000002
  0
LINE
  8
_0-2____C_ä___1
  6
CONTINUOUS
 62
    7
 10
29.263385
 20
21.072763000000002
 11
29.260355000000004
 21
21.328904000000001
  0
LINE
  8
_0-2____C_ä___1
  6
CONTINUOUS
 62
    7
 10
29.260355000000004
 20
21.328904000000001
 11
29.143426000000002
 21
21.328904000000001
  0
LINE
  8
_0-2____C_ä___1
  6
CONTINUOUS
 62
    7
 10
29.143426000000002
 20
21.328904000000001
 11
29.146456000000001
 21
21.072763000000002
  0
LINE
  8
_0-2____C_ä___1
  6
CONTINUOUS
 62
    7
 10
29.236856000000003
 20
23.301070000000003
 11
29.119793000000001
 21
23.301070000000003
  0
LINE
  8
_0-2____C_ä___1
  6
CONTINUOUS
 62
    7
 10
29.119793000000001
 20
23.301070000000003
 11
29.122548999999999
 21
23.077225000000002
  0
LINE
  8
_0-2____C_ä___1
  6
CONTINUOUS
 62
    7
 10
29.122548999999999
 20
23.077225000000002
 11
29.239477000000001
 21
23.077225000000002
  0
LINE
  8
_0-2____C_ä___1
  6
CONTINUOUS
 62
    7
 10
29.239477000000001
 20
23.077225000000002
 11
29.236856000000003
 21
23.301070000000003
  0
LINE
  8
_0-2____C_ä___1
  6
CONTINUOUS
 62
    7
 10
29.244162000000003
 20
22.685172000000001
 11
29.241336000000004
 21
22.923625000000001
  0
LINE
  8
_0-2____C_ä___1
  6
CONTINUOUS
 62
    7
 10
29.241336000000004
 20
22.923625000000001
 11
29.124408000000003
 21
22.923625000000001
  0
LINE
  8
_0-2____C_ä___1
  6
CONTINUOUS
 62
    7
 10
29.124408000000003
 20
22.923625000000001
 11
29.127198
 21
22.685172000000001
  0
LINE
  8
_0-2____C_ä___1
  6
CONTINUOUS
 62
    7
 10
29.127198
 20
22.685172000000001
 11
29.244162000000003
 21
22.685172000000001
  0
LINE
  8
_0-2____C_ä___1
  6
CONTINUOUS
 62
    7
 10
29.343173000000004
 20
21.072763000000002
 11
29.408285000000003
 21
21.072763000000002
  0
LINE
  8
_0-2____C_ä___1
  6
CONTINUOUS
 62
    7
 10
29.408285000000003
 20
21.072763000000002
 11
29.408285000000003
 21
21.328904000000001
  0
LINE
  8
_0-2____C_ä___1
  6
CONTINUOUS
 62
    7
 10
29.408285000000003
 20
21.328904000000001
 11
29.340005000000005
 21
21.328904000000001
  0
LINE
  8
_0-2____C_ä___1
  6
CONTINUOUS
 62
    7
 10
29.340005000000005
 20
21.328904000000001
 11
29.343173000000004
 21
21.072763000000002
  0
LINE
  8
_0-2____C_ä___1
  6
CONTINUOUS
 62
    7
 10
29.408285000000003
 20
23.301070000000003
 11
29.316647000000003
 21
23.301070000000003
  0
LINE
  8
_0-2____C_ä___1
  6
CONTINUOUS
 62
    7
 10
29.316647000000003
 20
23.301070000000003
 11
29.319194
 21
23.077225000000002
  0
LINE
  8
_0-2____C_ä___1
  6
CONTINUOUS
 62
    7
 10
29.319194
 20
23.077225000000002
 11
29.408285000000003
 21
23.077225000000002
  0
LINE
  8
_0-2____C_ä___1
  6
CONTINUOUS
 62
    7
 10
29.408285000000003
 20
23.077225000000002
 11
29.408285000000003
 21
23.301070000000003
  0
LINE
  8
_0-2____C_ä___1
  6
CONTINUOUS
 62
    7
 10
29.328568000000004
 20
22.287936000000002
 11
29.408285000000003
 21
22.287936000000002
  0
LINE
  8
_0-2____C_ä___1
  6
CONTINUOUS
 62
    7
 10
29.408285000000003
 20
22.287936000000002
 11
29.408285000000003
 21
22.531572000000001
  0
LINE
  8
_0-2____C_ä___1
  6
CONTINUOUS
 62
    7
 10
29.408285000000003
 20
22.531572000000001
 11
29.325742000000005
 21
22.531572000000001
  0
LINE
  8
_0-2____C_ä___1
  6
CONTINUOUS
 62
    7
 10
29.325742000000005
 20
22.531572000000001
 11
29.328568000000004
 21
22.287936000000002
  0
LINE
  8
_0-2____C_ä___1
  6
CONTINUOUS
 62
    7
 10
29.333390000000005
 20
21.879899000000002
 11
29.408285000000003
 21
21.879899000000002
  0
LINE
  8
_0-2____C_ä___1
  6
CONTINUOUS
 62
    7
 10
29.408285000000003
 20
21.879899000000002
 11
29.408285000000003
 21
22.134217000000003
  0
LINE
  8
_0-2____C_ä___1
  6
CONTINUOUS
 62
    7
 10
29.408285000000003
 20
22.134217000000003
 11
29.330427000000004
 21
22.134217000000003
  0
LINE
  8
_0-2____C_ä___1
  6
CONTINUOUS
 62
    7
 10
29.330427000000004
 20
22.134217000000003
 11
29.333390000000005
 21
21.879899000000002
  0
LINE
  8
_0-2____C_ä___1
  6
CONTINUOUS
 62
    7
 10
29.321057000000003
 20
22.923625000000001
 11
29.323879000000002
 21
22.685172000000001
  0
LINE
  8
_0-2____C_ä___1
  6
CONTINUOUS
 62
    7
 10
29.323879000000002
 20
22.685172000000001
 11
29.408285000000003
 21
22.685172000000001
  0
LINE
  8
_0-2____C_ä___1
  6
CONTINUOUS
 62
    7
 10
29.408285000000003
 20
22.685172000000001
 11
29.408285000000003
 21
22.923625000000001
  0
LINE
  8
_0-2____C_ä___1
  6
CONTINUOUS
 62
    7
 10
29.408285000000003
 20
22.923625000000001
 11
29.321057000000003
 21
22.923625000000001
  0
LINE
  8
_0-2____C_ä___1
  6
CONTINUOUS
 62
    7
 10
29.338279999999997
 20
21.482592
 11
29.408285000000003
 21
21.482592
  0
LINE
  8
_0-2____C_ä___1
  6
CONTINUOUS
 62
    7
 10
29.408285000000003
 20
21.482592
 11
29.408285000000003
 21
21.726316000000001
  0
LINE
  8
_0-2____C_ä___1
  6
CONTINUOUS
 62
    7
 10
29.408285000000003
 20
21.726316000000001
 11
29.335320000000003
 21
21.726316000000001
  0
LINE
  8
_0-2____C_ä___1
  6
CONTINUOUS
 62
    7
 10
29.335320000000003
 20
21.726316000000001
 11
29.338279999999997
 21
21.482592
  0
TEXT
  8
_0-2____C_ä___1
 62
    7
 10
30.951778570940458
 20
17.600776399964257
 40
0.4233339999999999
 41
1
 50
0
  1
YW1414
  0
ENDSEC
  0
EOF
