  0
SECTION
  2
HEADER
  9
$ACADVER
  1
AC1009
  9
$INSBASE
 10
0
 20
0
 30
0
  9
$EXTMIN
 10
0
 20
0
  9
$EXTMAX
 10
59.400000000000006
 20
42
  9
$LIMMIN
 10
0
 20
0
  9
$LIMMAX
 10
59.400000000000006
 20
42
  9
$LTSCALE
 40
0.1
  0
ENDSEC
  0
SECTION
  2
TABLES
  0
TABLE
  2
LTYPE
 70
     9
  0
LTYPE
  2
CONTINUOUS
 70
    64
  3
Ä└É³
 72
    65
 73
     0
 40
0.0
  0
LTYPE
  2
DASHED1
 70
    64
  3
--  --  --  --  --  --  --  --  
 72
    65
 73
     2
 40
2.5
 49
1.25
 49
-1.25
  0
LTYPE
  2
DASHED2
 70
    64
  3
----    ----    ----    ----    
 72
    65
 73
     2
 40
5.0
 49
2.5
 49
-2.5
  0
LTYPE
  2
DASHED3
 70
    64
  3
------  ------  ------  ------  
 72
    65
 73
     2
 40
5.0
 49
3.75
 49
-1.25
  0
LTYPE
  2
CENTER1
 70
    64
  3
----- - ----- - ----- - ----- - 
 72
    65
 73
     4
 40
10.0
 49
6.25
 49
-1.25
 49
1.25
 49
-1.25
  0
LTYPE
  2
CENTER2
 70
    64
  3
----------  --  ----------  --  
 72
    65
 73
     4
 40
20.0
 49
12.5
 49
-2.5
 49
2.5
 49
-2.5
  0
LTYPE
  2
PHANTOM1
 70
    64
  3
--- - - --- - - --- - - --- - - 
 72
    65
 73
     6
 40
10.0
 49
3.25
 49
-1.25
 49
1.25
 49
-1.25
 49
1.25
 49
-1.25
  0
LTYPE
  2
PHANTOM2
 70
    64
  3
--------  -  -  --------  -  -  
 72
    65
 73
     6
 40
20.0
 49
10.0
 49
-2.5
 49
1.25
 49
-2.5
 49
1.25
 49
-2.5
  0
LTYPE
  2
DOT
 70
    64
  3
-   -   -   -   -   -   -   -   
 72
    65
 73
     2
 40
2.5
 49
0.625
 49
-1.875
  0
LTYPE
  2
DUMMY
 70
    64
  3
â_â~ü[
 72
    65
 73
     0
 40
0.0
  0
LTYPE
  2
RAND1
 70
    64
  3
âëâôâ_âÇÉ³1
 72
    65
 73
     4
 40
10.0
 49
1.0
 49
-2.0
 49
3.0
 49
-4.0
  0
LTYPE
  2
RAND2
 70
    64
  3
âëâôâ_âÇÉ³2
 72
    65
 73
     4
 40
14.0
 49
2.0
 49
-3.0
 49
4.0
 49
-5.0
  0
LTYPE
  2
RAND3
 70
    64
  3
âëâôâ_âÇÉ³3
 72
    65
 73
     4
 40
18.0
 49
3.0
 49
-4.0
 49
5.0
 49
-6.0
  0
LTYPE
  2
RAND4
 70
    64
  3
âëâôâ_âÇÉ³4
 72
    65
 73
     4
 40
22.0
 49
4.0
 49
-5.0
 49
6.0
 49
-7.0
  0
LTYPE
  2
RAND5
 70
    64
  3
âëâôâ_âÇÉ³5
 72
    65
 73
     4
 40
26.0
 49
5.0
 49
-6.0
 49
7.0
 49
-8.0
  0
LTYPE
  2
LONG1
 70
    64
  3
----------  --  ----------  --  
 72
    65
 73
     4
 40
40.0
 49
32.5
 49
-2.5
 49
2.5
 49
-2.5
  0
LTYPE
  2
LONG2
 70
    64
  3
--------  -  -  --------  -  -  
 72
    65
 73
     6
 40
40.0
 49
30.0
 49
-2.5
 49
1.25
 49
-2.5
 49
1.25
 49
-2.5
  0
LTYPE
  2
LONG3
 70
    64
  3
+++++++++++++++..+++++++++++++++
 72
    65
 73
     2
 40
40.0
 49
37.5
 49
-2.5
  0
LTYPE
  2
LONG4
 70
    64
  3
+++++++++++++++..+++++++++++++++
 72
    65
 73
     2
 40
80.0
 49
75.0
 49
-5.0
  0
LTYPE
  2
LONG5
 70
    64
  3
----------  --  ----------  --  
 72
    65
 73
     4
 40
60.0
 49
37.5
 49
-7.5
 49
7.5
 49
-7.5
  0
LTYPE
  2
dashed
 70
   64
  3
-------   -------------   ------
 72
   65
 73
    2
 40
7.5
 49
6
 49
-1.5
  0
LTYPE
  2
dashed_spaced
 70
   64
  3
----        --------        ----
 72
   65
 73
    2
 40
12
 49
6
 49
-6
  0
LTYPE
  2
long_dashed_dotted
 70
   64
  3
------------- --- --------------
 72
   65
 73
    4
 40
15.25
 49
12
 49
-1.5
 49
0.25
 49
-1.5
  0
LTYPE
  2
long_dashed_double-dotted
 70
   64
  3
----------- --- --- ------------
 72
   65
 73
    6
 40
17
 49
12
 49
-1.5
 49
0.25
 49
-1.5
 49
0.25
 49
-1.5
  0
LTYPE
  2
long_dashed_triplicate-dotted
 70
   64
  3
--------- --- --- --- ----------
 72
   65
 73
    8
 40
18.75
 49
12
 49
-1.5
 49
0.25
 49
-1.5
 49
0.25
 49
-1.5
 49
0.25
 49
-1.5
  0
LTYPE
  2
dotted
 70
   64
  3
   -       -       -       -    
 72
   65
 73
    2
 40
1.75
 49
0.25
 49
-1.5
  0
LTYPE
  2
chain
 70
   64
  3
-------------- -- --------------
 72
   65
 73
    4
 40
18.5
 49
12
 49
-1.5
 49
3.5
 49
-1.5
  0
LTYPE
  2
chain_double_dash
 70
   64
  3
------------ -- -- -------------
 72
   65
 73
    6
 40
23.5
 49
12
 49
-1.5
 49
3.5
 49
-1.5
 49
3.5
 49
-1.5
  0
LTYPE
  2
dashed_dotted
 70
   64
  3
-----------     -     ----------
 72
   65
 73
    4
 40
9.25
 49
6
 49
-1.5
 49
0.25
 49
-1.5
  0
LTYPE
  2
double-dashed_dotted
 70
   64
  3
------   -----------   -   -----
 72
   65
 73
    6
 40
16.75
 49
6
 49
-1.5
 49
6
 49
-1.5
 49
0.25
 49
-1.5
  0
LTYPE
  2
dashed_double-dotted
 70
   64
  3
---------    -    -    ---------
 72
   65
 73
    6
 40
11
 49
6
 49
-1.5
 49
0.25
 49
-1.5
 49
0.25
 49
-1.5
  0
LTYPE
  2
double-dashed_double-dotted
 70
   64
  3
-----   ---------   -   -   ----
 72
   65
 73
    8
 40
18.5
 49
6
 49
-1.5
 49
6
 49
-1.5
 49
0.25
 49
-1.5
 49
0.25
 49
-1.5
  0
LTYPE
  2
dashed_triplicate-dotted
 70
   64
  3
-------    -    -    -    ------
 72
   65
 73
    8
 40
12.75
 49
6
 49
-1.5
 49
0.25
 49
-1.5
 49
0.25
 49
-1.5
 49
0.25
 49
-1.5
  0
LTYPE
  2
double-dashed_triplicate-dotted
 70
   64
  3
-----  ---------  -  -  -  -----
 72
   65
 73
   10
 40
20.25
 49
6
 49
-1.5
 49
6
 49
-1.5
 49
0.25
 49
-1.5
 49
0.25
 49
-1.5
 49
0.25
 49
-1.5
  0
LTYPE
  2
undefined
 70
   64
  3
--------------------------------
 72
   65
 73
    0
 40
0
  0
ENDTAB
  0
TABLE
  2
STYLE
  5
3
100
AcDbSymbolTable
 70
     1
  0
STYLE
  5
10
100
AcDbSymbolTableRecord
100
AcDbTextStyleTableRecord
  2
STANDARD
 70
     0
 40
0.0
 41
1.0
 50
0.0
 71
     0
 42
0.2
  3
txt
  4
bigfont.shx
  0
STYLE
  5
26
100
AcDbSymbolTableRecord
100
AcDbTextStyleTableRecord
  2
TATEGAKI
 70
    68
 40
0.0
 41
1.0
 50
0.0
 71
     0
 42
1.0
  3
txt
  4
bigfont.shx
  0
ENDTAB
  0
TABLE
  2
LAYER
 70
    2
  0
LAYER
  2
_0-2____C_ä___1
 70
   64
 62
    7
  6
CONTINUOUS
  0
LAYER
  2
ADD_LINE
 70
   64
 62
    7
  6
CONTINUOUS
  0
ENDTAB
  0
ENDSEC
  0
SECTION
  2
BLOCKS
  0
ENDSEC
  0
SECTION
  2
ENTITIES
  0
LINE
  8
_0-2____C_ä___1
  6
CONTINUOUS
 62
    7
 10
27.980600500000005
 20
20.589164499999999
 11
27.946757500000004
 21
20.564263499999999
  0
LINE
  8
_0-2____C_ä___1
  6
CONTINUOUS
 62
    7
 10
27.946757500000004
 20
20.564263499999999
 11
27.855805499999999
 21
20.495096500000002
  0
LINE
  8
_0-2____C_ä___1
  6
CONTINUOUS
 62
    7
 10
27.855805499999999
 20
20.495096500000002
 11
27.723610500000003
 21
20.389969500000003
  0
LINE
  8
_0-2____C_ä___1
  6
CONTINUOUS
 62
    7
 10
27.723610500000003
 20
20.389969500000003
 11
27.566038500000005
 21
20.257189499999999
  0
LINE
  8
_0-2____C_ä___1
  6
CONTINUOUS
 62
    7
 10
27.566038500000005
 20
20.257189499999999
 11
27.398956499999997
 21
20.105061500000001
  0
LINE
  8
_0-2____C_ä___1
  6
CONTINUOUS
 62
    7
 10
27.398956499999997
 20
20.105061500000001
 11
27.2382305
 21
19.9418905
  0
LINE
  8
_0-2____C_ä___1
  6
CONTINUOUS
 62
    7
 10
27.2382305
 20
19.9418905
 11
27.099726499999999
 21
19.7759845
  0
LINE
  8
_0-2____C_ä___1
  6
CONTINUOUS
 62
    7
 10
27.099726499999999
 20
19.7759845
 11
26.999309499999999
 21
19.615648499999999
  0
LINE
  8
_0-2____C_ä___1
  6
CONTINUOUS
 62
    7
 10
26.999309499999999
 20
19.615648499999999
 11
26.952848500000002
 21
19.4691875
  0
LINE
  8
_0-2____C_ä___1
  6
CONTINUOUS
 62
    7
 10
26.952848500000002
 20
19.4691875
 11
26.976206500000004
 21
19.3449095
  0
LINE
  8
_0-2____C_ä___1
  6
CONTINUOUS
 62
    7
 10
26.976206500000004
 20
19.3449095
 11
27.085252500000003
 21
19.251117499999999
  0
LINE
  8
_0-2____C_ä___1
  6
CONTINUOUS
 62
    7
 10
27.085252500000003
 20
19.251117499999999
 11
27.2958505
 21
19.196120500000003
  0
LINE
  8
_0-2____C_ä___1
  6
CONTINUOUS
 62
    7
 10
27.2958505
 20
19.196120500000003
 11
27.387226499999997
 21
19.189207500000002
  0
LINE
  8
_0-2____C_ä___1
  6
CONTINUOUS
 62
    7
 10
27.387226499999997
 20
19.189207500000002
 11
27.552768500000003
 21
19.111784499999999
  0
LINE
  8
_0-2____C_ä___1
  6
CONTINUOUS
 62
    7
 10
27.552768500000003
 20
19.111784499999999
 11
27.629596500000005
 21
18.8788275
  0
LINE
  8
_0-2____C_ä___1
  6
CONTINUOUS
 62
    7
 10
28.056941500000001
 20
20.574489499999999
 11
28.0145315
 21
20.543299500000003
  0
LINE
  8
_0-2____C_ä___1
  6
CONTINUOUS
 62
    7
 10
28.0145315
 20
20.543299500000003
 11
27.9028645
 21
20.458219500000002
  0
LINE
  8
_0-2____C_ä___1
  6
CONTINUOUS
 62
    7
 10
27.9028645
 20
20.458219500000002
 11
27.745286499999999
 21
20.331982499999999
  0
LINE
  8
_0-2____C_ä___1
  6
CONTINUOUS
 62
    7
 10
27.745286499999999
 20
20.331982499999999
 11
27.565142500000004
 21
20.1773235
  0
LINE
  8
_0-2____C_ä___1
  6
CONTINUOUS
 62
    7
 10
27.565142500000004
 20
20.1773235
 11
27.385778500000001
 21
20.006977500000001
  0
LINE
  8
_0-2____C_ä___1
  6
CONTINUOUS
 62
    7
 10
27.385778500000001
 20
20.006977500000001
 11
27.230539499999999
 21
19.833676499999999
  0
LINE
  8
_0-2____C_ä___1
  6
CONTINUOUS
 62
    7
 10
27.230539499999999
 20
19.833676499999999
 11
27.122770500000001
 21
19.670156500000001
  0
LINE
  8
_0-2____C_ä___1
  6
CONTINUOUS
 62
    7
 10
27.122770500000001
 20
19.670156500000001
 11
27.085818500000002
 21
19.529151500000001
  0
LINE
  8
_0-2____C_ä___1
  6
CONTINUOUS
 62
    7
 10
27.085818500000002
 20
19.529151500000001
 11
27.143027500000002
 21
19.423393500000003
  0
LINE
  8
_0-2____C_ä___1
  6
CONTINUOUS
 62
    7
 10
27.143027500000002
 20
19.423393500000003
 11
27.3177445
 21
19.365619500000001
  0
LINE
  8
_0-2____C_ä___1
  6
CONTINUOUS
 62
    7
 10
27.3177445
 20
19.365619500000001
 11
27.483467500000003
 21
19.363042500000002
  0
LINE
  8
_0-2____C_ä___1
  6
CONTINUOUS
 62
    7
 10
27.483467500000003
 20
19.363042500000002
 11
27.844915500000003
 21
19.304578500000002
  0
LINE
  8
_0-2____C_ä___1
  6
CONTINUOUS
 62
    7
 10
27.844915500000003
 20
19.304578500000002
 11
28.198501499999999
 21
19.114127499999999
  0
LINE
  8
_0-2____C_ä___1
  6
CONTINUOUS
 62
    7
 10
27.585135500000003
 20
18.7573525
 11
27.644134500000003
 21
18.7771285
  0
LINE
  8
_0-2____C_ä___1
  6
CONTINUOUS
 62
    7
 10
27.644134500000003
 20
18.7771285
 11
27.743353500000001
 21
18.718560499999999
  0
LINE
  8
_0-2____C_ä___1
  6
CONTINUOUS
 62
    7
 10
27.743353500000001
 20
18.718560499999999
 11
27.768845499999998
 21
18.7383375
  0
LINE
  8
_0-2____C_ä___1
  6
CONTINUOUS
 62
    7
 10
27.768845499999998
 20
18.7383375
 11
27.797681499999999
 21
18.734682500000002
  0
LINE
  8
_0-2____C_ä___1
  6
CONTINUOUS
 62
    7
 10
27.797681499999999
 20
18.734682500000002
 11
27.809774500000003
 21
18.680873500000001
  0
LINE
  8
_0-2____C_ä___1
  6
CONTINUOUS
 62
    7
 10
27.809774500000003
 20
18.680873500000001
 11
27.832271500000004
 21
18.651864499999999
  0
LINE
  8
_0-2____C_ä___1
  6
CONTINUOUS
 62
    7
 10
27.832271500000004
 20
18.651864499999999
 11
27.813701500000004
 21
18.6375305
  0
LINE
  8
_0-2____C_ä___1
  6
CONTINUOUS
 62
    7
 10
27.813701500000004
 20
18.6375305
 11
27.808102500000004
 21
18.593228499999999
  0
LINE
  8
_0-2____C_ä___1
  6
CONTINUOUS
 62
    7
 10
27.808102500000004
 20
18.593228499999999
 11
27.717653500000001
 21
18.5649075
  0
LINE
  8
_0-2____C_ä___1
  6
CONTINUOUS
 62
    7
 10
27.717653500000001
 20
18.5649075
 11
27.564413500000001
 21
18.659650500000001
  0
LINE
  8
_0-2____C_ä___1
  6
CONTINUOUS
 62
    7
 10
27.564413500000001
 20
18.659650500000001
 11
27.5706335
 21
18.708982500000001
  0
LINE
  8
_0-2____C_ä___1
  6
CONTINUOUS
 62
    7
 10
27.5706335
 20
18.708982500000001
 11
27.500215500000003
 21
18.7472235
  0
LINE
  8
_0-2____C_ä___1
  6
CONTINUOUS
 62
    7
 10
27.500215500000003
 20
18.7472235
 11
27.4964935
 21
18.8669075
  0
LINE
  8
_0-2____C_ä___1
  6
CONTINUOUS
 62
    7
 10
27.4964935
 20
18.8669075
 11
27.521988499999999
 21
18.886680500000001
  0
LINE
  8
_0-2____C_ä___1
  6
CONTINUOUS
 62
    7
 10
27.521988499999999
 20
18.886680500000001
 11
27.556903500000001
 21
18.848855499999999
  0
LINE
  8
_0-2____C_ä___1
  6
CONTINUOUS
 62
    7
 10
27.556903500000001
 20
18.848855499999999
 11
27.785228500000002
 21
18.949658500000002
  0
LINE
  8
_0-2____C_ä___1
  6
CONTINUOUS
 62
    7
 10
27.785228500000002
 20
18.949658500000002
 11
27.8373335
 21
18.915827500000002
  0
LINE
  8
_0-2____C_ä___1
  6
CONTINUOUS
 62
    7
 10
27.8373335
 20
18.915827500000002
 11
27.834201500000002
 21
18.891160500000002
  0
LINE
  8
_0-2____C_ä___1
  6
CONTINUOUS
 62
    7
 10
27.834201500000002
 20
18.891160500000002
 11
27.774496499999998
 21
18.898601500000002
  0
LINE
  8
_0-2____C_ä___1
  6
CONTINUOUS
 62
    7
 10
27.774496499999998
 20
18.898601500000002
 11
27.670212500000005
 21
18.817712499999999
  0
LINE
  8
_0-2____C_ä___1
  6
CONTINUOUS
 62
    7
 10
27.670212500000005
 20
18.817712499999999
 11
27.572009500000004
 21
18.786223500000002
  0
LINE
  8
_0-2____C_ä___1
  6
CONTINUOUS
 62
    7
 10
27.572009500000004
 20
18.786223500000002
 11
27.585135500000003
 21
18.7573525
  0
LINE
  8
_0-2____C_ä___1
  6
CONTINUOUS
 62
    7
 10
27.791031499999999
 20
18.781263500000001
 11
27.808125500000003
 21
18.795156500000001
  0
LINE
  8
_0-2____C_ä___1
  6
CONTINUOUS
 62
    7
 10
27.808125500000003
 20
18.795156500000001
 11
27.816216500000003
 21
18.812863499999999
  0
LINE
  8
_0-2____C_ä___1
  6
CONTINUOUS
 62
    7
 10
27.816216500000003
 20
18.812863499999999
 11
27.813616500000002
 21
18.830662499999999
  0
LINE
  8
_0-2____C_ä___1
  6
CONTINUOUS
 62
    7
 10
27.813616500000002
 20
18.830662499999999
 11
27.803499500000001
 21
18.8415505
  0
LINE
  8
_0-2____C_ä___1
  6
CONTINUOUS
 62
    7
 10
27.803499500000001
 20
18.8415505
 11
27.788698499999999
 21
18.846466500000002
  0
LINE
  8
_0-2____C_ä___1
  6
CONTINUOUS
 62
    7
 10
27.788698499999999
 20
18.846466500000002
 11
27.771498500000003
 21
18.845133499999999
  0
LINE
  8
_0-2____C_ä___1
  6
CONTINUOUS
 62
    7
 10
27.771498500000003
 20
18.845133499999999
 11
27.778480500000001
 21
18.842508500000001
  0
LINE
  8
_0-2____C_ä___1
  6
CONTINUOUS
 62
    7
 10
27.778480500000001
 20
18.842508500000001
 11
27.784328500000001
 21
18.838321500000003
  0
LINE
  8
_0-2____C_ä___1
  6
CONTINUOUS
 62
    7
 10
27.784328500000001
 20
18.838321500000003
 11
27.788622499999999
 21
18.832525499999999
  0
LINE
  8
_0-2____C_ä___1
  6
CONTINUOUS
 62
    7
 10
27.788622499999999
 20
18.832525499999999
 11
27.790878499999998
 21
18.817932500000001
  0
LINE
  8
_0-2____C_ä___1
  6
CONTINUOUS
 62
    7
 10
27.790878499999998
 20
18.817932500000001
 11
27.7844585
 21
18.803386499999998
  0
LINE
  8
_0-2____C_ä___1
  6
CONTINUOUS
 62
    7
 10
27.7844585
 20
18.803386499999998
 11
27.770708500000001
 21
18.792008500000001
  0
LINE
  8
_0-2____C_ä___1
  6
CONTINUOUS
 62
    7
 10
27.770708500000001
 20
18.792008500000001
 11
27.759227500000005
 21
18.788200499999999
  0
LINE
  8
_0-2____C_ä___1
  6
CONTINUOUS
 62
    7
 10
27.759227500000005
 20
18.788200499999999
 11
27.748046500000001
 21
18.788080500000003
  0
LINE
  8
_0-2____C_ä___1
  6
CONTINUOUS
 62
    7
 10
27.748046500000001
 20
18.788080500000003
 11
27.7380475
 21
18.791254500000001
  0
LINE
  8
_0-2____C_ä___1
  6
CONTINUOUS
 62
    7
 10
27.7380475
 20
18.791254500000001
 11
27.751027499999999
 21
18.779123500000001
  0
LINE
  8
_0-2____C_ä___1
  6
CONTINUOUS
 62
    7
 10
27.751027499999999
 20
18.779123500000001
 11
27.769992500000001
 21
18.775522500000001
  0
LINE
  8
_0-2____C_ä___1
  6
CONTINUOUS
 62
    7
 10
27.769992500000001
 20
18.775522500000001
 11
27.791031499999999
 21
18.781263500000001
  0
LINE
  8
_0-2____C_ä___1
  6
CONTINUOUS
 62
    7
 10
27.892854499999999
 20
18.857262500000001
 11
27.982424500000004
 21
18.931261500000002
  0
LINE
  8
_0-2____C_ä___1
  6
CONTINUOUS
 62
    7
 10
27.982424500000004
 20
18.931261500000002
 11
27.990016500000003
 21
18.9364445
  0
LINE
  8
_0-2____C_ä___1
  6
CONTINUOUS
 62
    7
 10
27.990016500000003
 20
18.9364445
 11
28.008663500000001
 21
18.940570500000003
  0
LINE
  8
_0-2____C_ä___1
  6
CONTINUOUS
 62
    7
 10
28.008663500000001
 20
18.940570500000003
 11
28.032173499999999
 21
18.926505500000001
  0
LINE
  8
_0-2____C_ä___1
  6
CONTINUOUS
 62
    7
 10
28.032173499999999
 20
18.926505500000001
 11
28.028534500000003
 21
18.939666499999998
  0
LINE
  8
_0-2____C_ä___1
  6
CONTINUOUS
 62
    7
 10
28.028534500000003
 20
18.939666499999998
 11
28.014084500000003
 21
18.959763500000001
  0
LINE
  8
_0-2____C_ä___1
  6
CONTINUOUS
 62
    7
 10
28.014084500000003
 20
18.959763500000001
 11
27.983528500000002
 21
18.9577195
  0
LINE
  8
_0-2____C_ä___1
  6
CONTINUOUS
 62
    7
 10
27.983528500000002
 20
18.9577195
 11
27.8801925
 21
18.872488499999999
  0
LINE
  8
_0-2____C_ä___1
  6
CONTINUOUS
 62
    7
 10
27.8801925
 20
18.872488499999999
 11
27.892854499999999
 21
18.857262500000001
  0
LINE
  8
_0-2____C_ä___1
  6
CONTINUOUS
 62
    7
 10
27.8801925
 20
18.927334499999997
 11
27.9504555
 21
18.985419500000003
  0
LINE
  8
_0-2____C_ä___1
  6
CONTINUOUS
 62
    7
 10
27.9504555
 20
18.985419500000003
 11
27.956400500000001
 21
18.989459499999999
  0
LINE
  8
_0-2____C_ä___1
  6
CONTINUOUS
 62
    7
 10
27.956400500000001
 20
18.989459499999999
 11
27.970985500000001
 21
18.992656499999999
  0
LINE
  8
_0-2____C_ä___1
  6
CONTINUOUS
 62
    7
 10
27.970985500000001
 20
18.992656499999999
 11
27.989331499999999
 21
18.981627499999998
  0
LINE
  8
_0-2____C_ä___1
  6
CONTINUOUS
 62
    7
 10
27.989331499999999
 20
18.981627499999998
 11
27.9865025
 21
18.9919075
  0
LINE
  8
_0-2____C_ä___1
  6
CONTINUOUS
 62
    7
 10
27.9865025
 20
18.9919075
 11
27.9752185
 21
19.007638499999999
  0
LINE
  8
_0-2____C_ä___1
  6
CONTINUOUS
 62
    7
 10
27.9752185
 20
19.007638499999999
 11
27.9512815
 21
19.006159499999999
  0
LINE
  8
_0-2____C_ä___1
  6
CONTINUOUS
 62
    7
 10
27.9512815
 20
19.006159499999999
 11
27.870406500000001
 21
18.939255499999998
  0
LINE
  8
_0-2____C_ä___1
  6
CONTINUOUS
 62
    7
 10
27.870406500000001
 20
18.939255499999998
 11
27.8801925
 21
18.927334499999997
  0
LINE
  8
_0-2____C_ä___1
  6
CONTINUOUS
 62
    7
 10
28.444345499999997
 20
19.068583499999999
 11
28.579445499999999
 21
18.885167500000001
  0
LINE
  8
_0-2____C_ä___1
  6
CONTINUOUS
 62
    7
 10
28.579445499999999
 20
18.885167500000001
 11
28.532624499999997
 21
18.854711500000001
  0
LINE
  8
_0-2____C_ä___1
  6
CONTINUOUS
 62
    7
 10
28.532624499999997
 20
18.854711500000001
 11
28.508646499999998
 21
18.886200499999998
  0
LINE
  8
_0-2____C_ä___1
  6
CONTINUOUS
 62
    7
 10
28.508646499999998
 20
18.886200499999998
 11
28.350051500000003
 21
18.774303499999998
  0
LINE
  8
_0-2____C_ä___1
  6
CONTINUOUS
 62
    7
 10
28.350051500000003
 20
18.774303499999998
 11
28.323818500000002
 21
18.8145405
  0
LINE
  8
_0-2____C_ä___1
  6
CONTINUOUS
 62
    7
 10
28.323818500000002
 20
18.8145405
 11
28.429377500000001
 21
18.889643500000002
  0
LINE
  8
_0-2____C_ä___1
  6
CONTINUOUS
 62
    7
 10
28.429377500000001
 20
18.889643500000002
 11
28.405776500000002
 21
18.926163499999998
  0
LINE
  8
_0-2____C_ä___1
  6
CONTINUOUS
 62
    7
 10
28.405776500000002
 20
18.926163499999998
 11
28.2972225
 21
18.855537500000001
  0
LINE
  8
_0-2____C_ä___1
  6
CONTINUOUS
 62
    7
 10
28.2972225
 20
18.855537500000001
 11
28.270626499999999
 21
18.896396500000002
  0
LINE
  8
_0-2____C_ä___1
  6
CONTINUOUS
 62
    7
 10
28.270626499999999
 20
18.896396500000002
 11
28.425740500000003
 21
18.996373500000001
  0
LINE
  8
_0-2____C_ä___1
  6
CONTINUOUS
 62
    7
 10
28.425740500000003
 20
18.996373500000001
 11
28.393926499999999
 21
19.035715500000002
  0
LINE
  8
_0-2____C_ä___1
  6
CONTINUOUS
 62
    7
 10
28.393926499999999
 20
19.035715500000002
 11
28.444345499999997
 21
19.068583499999999
  0
LINE
  8
_0-2____C_ä___1
  6
CONTINUOUS
 62
    7
 10
28.397768500000002
 20
19.037853500000001
 11
28.274708499999999
 21
19.0706515
  0
LINE
  8
_0-2____C_ä___1
  6
CONTINUOUS
 62
    7
 10
28.274708499999999
 20
19.0706515
 11
28.306765500000001
 21
19.100210499999999
  0
LINE
  8
_0-2____C_ä___1
  6
CONTINUOUS
 62
    7
 10
28.306765500000001
 20
19.100210499999999
 11
28.444345499999997
 21
19.068583499999999
  0
LINE
  8
_0-2____C_ä___1
  6
CONTINUOUS
 62
    7
 10
28.425740500000003
 20
18.996373500000001
 11
28.305213500000004
 21
19.023865499999999
  0
LINE
  8
_0-2____C_ä___1
  6
CONTINUOUS
 62
    7
 10
28.305213500000004
 20
19.023865499999999
 11
28.274708499999999
 21
19.0706515
  0
LINE
  8
_0-2____C_ä___1
  6
CONTINUOUS
 62
    7
 10
28.274708499999999
 20
19.0706515
 11
28.234692500000001
 21
19.126806499999997
  0
LINE
  8
_0-2____C_ä___1
  6
CONTINUOUS
 62
    7
 10
28.234692500000001
 20
19.126806499999997
 11
28.167047500000002
 21
19.0829135
  0
LINE
  8
_0-2____C_ä___1
  6
CONTINUOUS
 62
    7
 10
28.167047500000002
 20
19.0829135
 11
28.218207500000002
 21
19.004229500000001
  0
LINE
  8
_0-2____C_ä___1
  6
CONTINUOUS
 62
    7
 10
28.218207500000002
 20
19.004229500000001
 11
28.187339500000004
 21
18.962887500000001
  0
LINE
  8
_0-2____C_ä___1
  6
CONTINUOUS
 62
    7
 10
28.187339500000004
 20
18.962887500000001
 11
28.214538500000003
 21
18.921132499999999
  0
LINE
  8
_0-2____C_ä___1
  6
CONTINUOUS
 62
    7
 10
28.214538500000003
 20
18.921132499999999
 11
28.251555500000002
 21
18.9260935
  0
LINE
  8
_0-2____C_ä___1
  6
CONTINUOUS
 62
    7
 10
28.305213500000004
 20
19.023865499999999
 11
28.273054500000001
 21
18.992514499999999
  0
LINE
  8
_0-2____C_ä___1
  6
CONTINUOUS
 62
    7
 10
28.273054500000001
 20
18.992514499999999
 11
28.331484500000002
 21
18.978046500000001
  0
LINE
  8
_0-2____C_ä___1
  6
CONTINUOUS
 62
    7
 10
28.331484500000002
 20
18.978046500000001
 11
28.251555500000002
 21
18.9260935
  0
LINE
  8
_0-2____C_ä___1
  6
CONTINUOUS
 62
    7
 10
28.251555500000002
 20
18.9260935
 11
28.270626499999999
 21
18.896396500000002
  0
LINE
  8
_0-2____C_ä___1
  6
CONTINUOUS
 62
    7
 10
28.273054500000001
 20
18.992514499999999
 11
28.295896499999998
 21
18.954826499999999
  0
LINE
  8
_0-2____C_ä___1
  6
CONTINUOUS
 62
    7
 10
28.469992500000004
 20
18.952621499999999
 11
28.476305500000002
 21
18.949423500000002
  0
LINE
  8
_0-2____C_ä___1
  6
CONTINUOUS
 62
    7
 10
28.476305500000002
 20
18.949423500000002
 11
28.480050500000001
 21
18.943669499999999
  0
LINE
  8
_0-2____C_ä___1
  6
CONTINUOUS
 62
    7
 10
28.480050500000001
 20
18.943669499999999
 11
28.480448500000001
 21
18.936567499999999
  0
LINE
  8
_0-2____C_ä___1
  6
CONTINUOUS
 62
    7
 10
28.480448500000001
 20
18.936567499999999
 11
28.477259500000002
 21
18.930322499999999
  0
LINE
  8
_0-2____C_ä___1
  6
CONTINUOUS
 62
    7
 10
28.477259500000002
 20
18.930322499999999
 11
28.471510500000001
 21
18.926619499999997
  0
LINE
  8
_0-2____C_ä___1
  6
CONTINUOUS
 62
    7
 10
28.471510500000001
 20
18.926619499999997
 11
28.464429500000001
 21
18.926301500000001
  0
LINE
  8
_0-2____C_ä___1
  6
CONTINUOUS
 62
    7
 10
28.464429500000001
 20
18.926301500000001
 11
28.458183500000004
 21
18.929478499999998
  0
LINE
  8
_0-2____C_ä___1
  6
CONTINUOUS
 62
    7
 10
28.458183500000004
 20
18.929478499999998
 11
28.454442499999999
 21
18.935181499999999
  0
LINE
  8
_0-2____C_ä___1
  6
CONTINUOUS
 62
    7
 10
28.454442499999999
 20
18.935181499999999
 11
28.454043500000001
 21
18.942218499999999
  0
LINE
  8
_0-2____C_ä___1
  6
CONTINUOUS
 62
    7
 10
28.454043500000001
 20
18.942218499999999
 11
28.457262500000002
 21
18.948466499999999
  0
LINE
  8
_0-2____C_ä___1
  6
CONTINUOUS
 62
    7
 10
28.457262500000002
 20
18.948466499999999
 11
28.4629935
 21
18.952204500000001
  0
LINE
  8
_0-2____C_ä___1
  6
CONTINUOUS
 62
    7
 10
28.4629935
 20
18.952204500000001
 11
28.469992500000004
 21
18.952621499999999
  0
LINE
  8
_0-2____C_ä___1
  6
CONTINUOUS
 62
    7
 10
28.335495500000004
 20
18.796697500000001
 11
28.203824500000003
 21
18.714634499999999
  0
LINE
  8
_0-2____C_ä___1
  6
CONTINUOUS
 62
    7
 10
28.203824500000003
 20
18.714634499999999
 11
28.197816500000002
 21
18.711257499999999
  0
LINE
  8
_0-2____C_ä___1
  6
CONTINUOUS
 62
    7
 10
28.197816500000002
 20
18.711257499999999
 11
28.184402500000001
 21
18.708478500000002
  0
LINE
  8
_0-2____C_ä___1
  6
CONTINUOUS
 62
    7
 10
28.184402500000001
 20
18.708478500000002
 11
28.170494500000004
 21
18.717322500000002
  0
LINE
  8
_0-2____C_ä___1
  6
CONTINUOUS
 62
    7
 10
28.170494500000004
 20
18.717322500000002
 11
28.171309500000003
 21
18.729332500000002
  0
LINE
  8
_0-2____C_ä___1
  6
CONTINUOUS
 62
    7
 10
28.171309500000003
 20
18.729332500000002
 11
28.180490500000005
 21
18.739873499999998
  0
LINE
  8
_0-2____C_ä___1
  6
CONTINUOUS
 62
    7
 10
28.180490500000005
 20
18.739873499999998
 11
28.186185500000001
 21
18.744398499999999
  0
LINE
  8
_0-2____C_ä___1
  6
CONTINUOUS
 62
    7
 10
28.186185500000001
 20
18.744398499999999
 11
28.277964500000003
 21
18.8041375
  0
LINE
  8
_0-2____C_ä___1
  6
CONTINUOUS
 62
    7
 10
28.277964500000003
 20
18.8041375
 11
28.281432500000001
 21
18.8063805
  0
LINE
  8
_0-2____C_ä___1
  6
CONTINUOUS
 62
    7
 10
28.281432500000001
 20
18.8063805
 11
28.286140500000002
 21
18.8136315
  0
LINE
  8
_0-2____C_ä___1
  6
CONTINUOUS
 62
    7
 10
28.286140500000002
 20
18.8136315
 11
28.283545500000002
 21
18.826669500000001
  0
LINE
  8
_0-2____C_ä___1
  6
CONTINUOUS
 62
    7
 10
28.283545500000002
 20
18.826669500000001
 11
28.280470500000003
 21
18.831704499999997
  0
LINE
  8
_0-2____C_ä___1
  6
CONTINUOUS
 62
    7
 10
28.280470500000003
 20
18.831704499999997
 11
28.275154500000003
 21
18.836171500000003
  0
LINE
  8
_0-2____C_ä___1
  6
CONTINUOUS
 62
    7
 10
28.275154500000003
 20
18.836171500000003
 11
28.266439500000004
 21
18.836935499999999
  0
LINE
  8
_0-2____C_ä___1
  6
CONTINUOUS
 62
    7
 10
28.2395855
 20
18.8645645
 11
28.148667500000002
 21
18.803929499999999
  0
LINE
  8
_0-2____C_ä___1
  6
CONTINUOUS
 62
    7
 10
28.148667500000002
 20
18.803929499999999
 11
28.1447565
 21
18.8005125
  0
LINE
  8
_0-2____C_ä___1
  6
CONTINUOUS
 62
    7
 10
28.1447565
 20
18.8005125
 11
28.139539500000001
 21
18.791017499999999
  0
LINE
  8
_0-2____C_ä___1
  6
CONTINUOUS
 62
    7
 10
28.139539500000001
 20
18.791017499999999
 11
28.142794500000004
 21
18.776574499999999
  0
LINE
  8
_0-2____C_ä___1
  6
CONTINUOUS
 62
    7
 10
28.142794500000004
 20
18.776574499999999
 11
28.134907499999997
 21
18.7824955
  0
LINE
  8
_0-2____C_ä___1
  6
CONTINUOUS
 62
    7
 10
28.134907499999997
 20
18.7824955
 11
28.126375500000002
 21
18.797480500000002
  0
LINE
  8
_0-2____C_ä___1
  6
CONTINUOUS
 62
    7
 10
28.126375500000002
 20
18.797480500000002
 11
28.139883499999996
 21
18.817366499999999
  0
LINE
  8
_0-2____C_ä___1
  6
CONTINUOUS
 62
    7
 10
28.139883499999996
 20
18.817366499999999
 11
28.178037500000002
 21
18.842137500000003
  0
LINE
  8
_0-2____C_ä___1
  6
CONTINUOUS
 62
    7
 10
28.178037500000002
 20
18.842137500000003
 11
28.215257500000003
 21
18.866343499999999
  0
LINE
  8
_0-2____C_ä___1
  6
CONTINUOUS
 62
    7
 10
28.215257500000003
 20
18.866343499999999
 11
28.232004500000002
 21
18.877243499999999
  0
LINE
  8
_0-2____C_ä___1
  6
CONTINUOUS
 62
    7
 10
28.232004500000002
 20
18.877243499999999
 11
28.2395855
 21
18.8645645
  0
LINE
  8
_0-2____C_ä___1
  6
CONTINUOUS
 62
    7
 10
28.1687555
 20
18.7216615
 11
28.167167500000001
 21
18.7265765
  0
LINE
  8
_0-2____C_ä___1
  6
CONTINUOUS
 62
    7
 10
28.167167500000001
 20
18.7265765
 11
28.171140500000003
 21
18.740219500000002
  0
LINE
  8
_0-2____C_ä___1
  6
CONTINUOUS
 62
    7
 10
28.171140500000003
 20
18.740219500000002
 11
28.1937815
 21
18.7609365
  0
LINE
  8
_0-2____C_ä___1
  6
CONTINUOUS
 62
    7
 10
28.1937815
 20
18.7609365
 11
28.226381500000002
 21
18.782186500000002
  0
LINE
  8
_0-2____C_ä___1
  6
CONTINUOUS
 62
    7
 10
28.226381500000002
 20
18.782186500000002
 11
28.249438499999997
 21
18.7971735
  0
LINE
  8
_0-2____C_ä___1
  6
CONTINUOUS
 62
    7
 10
28.249438499999997
 20
18.7971735
 11
28.282716499999999
 21
18.8187465
  0
LINE
  8
_0-2____C_ä___1
  6
CONTINUOUS
 62
    7
 10
28.232763500000001
 20
18.8148865
 11
28.185737500000002
 21
18.787119499999999
  0
LINE
  8
_0-2____C_ä___1
  6
CONTINUOUS
 62
    7
 10
32.306321500000003
 20
22.489190500000003
 11
32.317584500000002
 21
22.475509500000001
  0
LINE
  8
_0-2____C_ä___1
  6
CONTINUOUS
 62
    7
 10
32.317584500000002
 20
22.475509500000001
 11
32.341257500000005
 21
22.434865500000001
  0
LINE
  8
_0-2____C_ä___1
  6
CONTINUOUS
 62
    7
 10
32.341257500000005
 20
22.434865500000001
 11
32.362165500000003
 21
22.367856500000002
  0
LINE
  8
_0-2____C_ä___1
  6
CONTINUOUS
 62
    7
 10
32.362165500000003
 20
22.367856500000002
 11
32.387165500000002
 21
22.2264895
  0
LINE
  8
_0-2____C_ä___1
  6
CONTINUOUS
 62
    7
 10
32.387165500000002
 20
22.2264895
 11
32.418940500000005
 21
22.046184499999999
  0
LINE
  8
_0-2____C_ä___1
  6
CONTINUOUS
 62
    7
 10
32.418940500000005
 20
22.046184499999999
 11
32.4346155
 21
21.957148500000002
  0
LINE
  8
_0-2____C_ä___1
  6
CONTINUOUS
 62
    7
 10
32.4346155
 20
21.957148500000002
 11
32.4346155
 21
21.800154499999998
  0
LINE
  8
_0-2____C_ä___1
  6
CONTINUOUS
 62
    7
 10
32.4346155
 20
21.800154499999998
 11
32.446254500000002
 21
21.780471500000004
  0
LINE
  8
_0-2____C_ä___1
  6
CONTINUOUS
 62
    7
 10
32.446254500000002
 20
21.780471500000004
 11
32.447151500000004
 21
21.7232135
  0
LINE
  8
_0-2____C_ä___1
  6
CONTINUOUS
 62
    7
 10
32.447151500000004
 20
21.7232135
 11
32.386281500000003
 21
21.6310675
  0
LINE
  8
_0-2____C_ä___1
  6
CONTINUOUS
 62
    7
 10
32.386281500000003
 20
21.6310675
 11
32.297026500000001
 21
21.452824499999998
  0
LINE
  8
_0-2____C_ä___1
  6
CONTINUOUS
 62
    7
 10
32.297026500000001
 20
21.452824499999998
 11
32.2278825
 21
21.235597500000001
  0
LINE
  8
_0-2____C_ä___1
  6
CONTINUOUS
 62
    7
 10
32.2278825
 20
21.235597500000001
 11
32.150706500000005
 21
21.129769500000002
  0
LINE
  8
_0-2____C_ä___1
  6
CONTINUOUS
 62
    7
 10
32.150706500000005
 20
21.129769500000002
 11
32.050756499999999
 21
21.071874500000003
  0
LINE
  8
_0-2____C_ä___1
  6
CONTINUOUS
 62
    7
 10
32.050756499999999
 20
21.071874500000003
 11
31.950805500000001
 21
20.9643555
  0
LINE
  8
_0-2____C_ä___1
  6
CONTINUOUS
 62
    7
 10
31.950805500000001
 20
20.9643555
 11
31.878989500000003
 21
20.906460500000001
  0
LINE
  8
_0-2____C_ä___1
  6
CONTINUOUS
 62
    7
 10
31.878989500000003
 20
20.906460500000001
 11
31.763567500000001
 21
20.825038500000002
  0
LINE
  8
_0-2____C_ä___1
  6
CONTINUOUS
 62
    7
 10
31.763567500000001
 20
20.825038500000002
 11
31.583744500000002
 21
20.6738255
  0
LINE
  8
_0-2____C_ä___1
  6
CONTINUOUS
 62
    7
 10
31.583744500000002
 20
20.6738255
 11
31.444183500000005
 21
20.592403500000003
  0
LINE
  8
_0-2____C_ä___1
  6
CONTINUOUS
 62
    7
 10
31.444183500000005
 20
20.592403500000003
 11
31.301035500000001
 21
20.5266485
  0
LINE
  8
_0-2____C_ä___1
  6
CONTINUOUS
 62
    7
 10
31.301035500000001
 20
20.5266485
 11
31.112289499999999
 21
20.404531500000001
  0
LINE
  8
_0-2____C_ä___1
  6
CONTINUOUS
 62
    7
 10
31.112289499999999
 20
20.404531500000001
 11
30.9852645
 21
20.338776500000002
  0
LINE
  8
_0-2____C_ä___1
  6
CONTINUOUS
 62
    7
 10
30.9852645
 20
20.338776500000002
 11
30.856385500000002
 21
20.290012500000003
  0
LINE
  8
_0-2____C_ä___1
  6
CONTINUOUS
 62
    7
 10
30.856385500000002
 20
20.290012500000003
 11
30.663129499999997
 21
20.1821935
  0
LINE
  8
_0-2____C_ä___1
  6
CONTINUOUS
 62
    7
 10
30.663129499999997
 20
20.1821935
 11
30.5141785
 21
20.073035500000003
  0
LINE
  8
_0-2____C_ä___1
  6
CONTINUOUS
 62
    7
 10
30.5141785
 20
20.073035500000003
 11
30.3996645
 21
20.032767500000002
  0
LINE
  8
_0-2____C_ä___1
  6
CONTINUOUS
 62
    7
 10
30.3996645
 20
20.032767500000002
 11
30.238181500000003
 21
20.052901500000001
  0
LINE
  8
_0-2____C_ä___1
  6
CONTINUOUS
 62
    7
 10
30.238181500000003
 20
20.052901500000001
 11
30.031107500000005
 21
20.073035500000003
  0
LINE
  8
_0-2____C_ä___1
  6
CONTINUOUS
 62
    7
 10
30.031107500000005
 20
20.073035500000003
 11
29.8313475
 21
20.078433500000003
  0
LINE
  8
_0-2____C_ä___1
  6
CONTINUOUS
 62
    7
 10
29.8313475
 20
20.078433500000003
 11
29.693339500000004
 21
20.095907499999999
  0
LINE
  8
_0-2____C_ä___1
  6
CONTINUOUS
 62
    7
 10
29.693339500000004
 20
20.095907499999999
 11
29.620452499999999
 21
20.127384500000002
  0
LINE
  8
_0-2____C_ä___1
  6
CONTINUOUS
 62
    7
 10
29.620452499999999
 20
20.127384500000002
 11
29.5638395
 21
20.144809500000001
  0
LINE
  8
_0-2____C_ä___1
  6
CONTINUOUS
 62
    7
 10
29.5638395
 20
20.144809500000001
 11
29.499847500000001
 21
20.136096500000001
  0
LINE
  8
_0-2____C_ä___1
  6
CONTINUOUS
 62
    7
 10
29.499847500000001
 20
20.136096500000001
 11
29.469417499999999
 21
20.127384500000002
  0
LINE
  8
_0-2____C_ä___1
  6
CONTINUOUS
 62
    7
 10
29.469417499999999
 20
20.127384500000002
 11
29.4759125
 21
20.113270499999999
  0
LINE
  8
_0-2____C_ä___1
  6
CONTINUOUS
 62
    7
 10
29.4759125
 20
20.113270499999999
 11
29.416644500000004
 21
20.119276500000002
  0
LINE
  8
_0-2____C_ä___1
  6
CONTINUOUS
 62
    7
 10
29.416644500000004
 20
20.119276500000002
 11
29.173482500000002
 21
20.217921500000003
  0
LINE
  8
_0-2____C_ä___1
  6
CONTINUOUS
 62
    7
 10
29.173482500000002
 20
20.217921500000003
 11
28.8787585
 21
20.330683499999999
  0
LINE
  8
_0-2____C_ä___1
  6
CONTINUOUS
 62
    7
 10
28.8787585
 20
20.330683499999999
 11
28.715488499999999
 21
20.3709615
  0
LINE
  8
_0-2____C_ä___1
  6
CONTINUOUS
 62
    7
 10
28.715488499999999
 20
20.3709615
 11
28.642144500000001
 21
20.3992045
  0
LINE
  8
_0-2____C_ä___1
  6
CONTINUOUS
 62
    7
 10
28.642144500000001
 20
20.3992045
 11
28.529382499999997
 21
20.446125500000001
  0
LINE
  8
_0-2____C_ä___1
  6
CONTINUOUS
 62
    7
 10
28.529382499999997
 20
20.446125500000001
 11
28.356262500000003
 21
20.497089500000001
  0
LINE
  8
_0-2____C_ä___1
  6
CONTINUOUS
 62
    7
 10
28.356262500000003
 20
20.497089500000001
 11
28.243512500000005
 21
20.544104500000003
  0
LINE
  8
_0-2____C_ä___1
  6
CONTINUOUS
 62
    7
 10
28.243512500000005
 20
20.544104500000003
 11
28.1805825
 21
20.565223500000002
  0
LINE
  8
_0-2____C_ä___1
  6
CONTINUOUS
 62
    7
 10
28.1805825
 20
20.565223500000002
 11
28.074024500000004
 21
20.572271499999999
  0
LINE
  8
_0-2____C_ä___1
  6
CONTINUOUS
 62
    7
 10
28.074024500000004
 20
20.572271499999999
 11
27.9204665
 21
20.607491500000002
  0
LINE
  8
_0-2____C_ä___1
  6
CONTINUOUS
 62
    7
 10
27.9204665
 20
20.607491500000002
 11
27.8068265
 21
20.670077500000001
  0
LINE
  8
_0-2____C_ä___1
  6
CONTINUOUS
 62
    7
 10
27.8068265
 20
20.670077500000001
 11
27.782411500000002
 21
20.719967499999999
  0
LINE
  8
_0-2____C_ä___1
  6
CONTINUOUS
 62
    7
 10
27.782411500000002
 20
20.719967499999999
 11
27.787535500000004
 21
20.740337499999999
  0
LINE
  8
_0-2____C_ä___1
  6
CONTINUOUS
 62
    7
 10
27.787535500000004
 20
20.740337499999999
 11
27.7121925
 21
20.815853500000003
  0
LINE
  8
_0-2____C_ä___1
  6
CONTINUOUS
 62
    7
 10
27.7121925
 20
20.815853500000003
 11
27.585326500000004
 21
20.815853500000003
  0
LINE
  8
_0-2____C_ä___1
  6
CONTINUOUS
 62
    7
 10
27.585326500000004
 20
20.815853500000003
 11
27.494701500000005
 21
20.906460500000001
  0
LINE
  8
_0-2____C_ä___1
  6
CONTINUOUS
 62
    7
 10
27.494701500000005
 20
20.906460500000001
 11
27.463382500000002
 21
20.939560499999999
  0
LINE
  8
_0-2____C_ä___1
  6
CONTINUOUS
 62
    7
 10
27.463382500000002
 20
20.939560499999999
 11
27.405218500000004
 21
21.0102115
  0
LINE
  8
_0-2____C_ä___1
  6
CONTINUOUS
 62
    7
 10
27.405218500000004
 20
21.0102115
 11
27.3738995
 21
21.0754415
  0
LINE
  8
_0-2____C_ä___1
  6
CONTINUOUS
 62
    7
 10
27.3738995
 20
21.0754415
 11
27.3318625
 21
21.105874499999999
  0
LINE
  8
_0-2____C_ä___1
  6
CONTINUOUS
 62
    7
 10
27.3318625
 20
21.105874499999999
 11
27.230785500000003
 21
21.157789500000003
  0
LINE
  8
_0-2____C_ä___1
  6
CONTINUOUS
 62
    7
 10
27.230785500000003
 20
21.157789500000003
 11
27.108214499999999
 21
21.317116500000001
  0
LINE
  8
_0-2____C_ä___1
  6
CONTINUOUS
 62
    7
 10
27.108214499999999
 20
21.317116500000001
 11
27.055843499999998
 21
21.576047500000001
  0
LINE
  8
_0-2____C_ä___1
  6
CONTINUOUS
 62
    7
 10
27.055843499999998
 20
21.576047500000001
 11
27.092090500000001
 21
21.810871500000005
  0
LINE
  8
_0-2____C_ä___1
  6
CONTINUOUS
 62
    7
 10
27.092090500000001
 20
21.810871500000005
 11
27.144438500000003
 21
21.933032499999999
  0
LINE
  8
_0-2____C_ä___1
  6
CONTINUOUS
 62
    7
 10
27.144438500000003
 20
21.933032499999999
 11
27.182474500000001
 21
22.008612499999998
  0
LINE
  8
_0-2____C_ä___1
  6
CONTINUOUS
 62
    7
 10
27.182474500000001
 20
22.008612499999998
 11
27.2151435
 21
22.111078499999998
  0
LINE
  8
_0-2____C_ä___1
  6
CONTINUOUS
 62
    7
 10
27.2151435
 20
22.111078499999998
 11
27.2290165
 21
22.162542500000001
  0
LINE
  8
_0-2____C_ä___1
  6
CONTINUOUS
 62
    7
 10
27.2290165
 20
22.162542500000001
 11
27.2772975
 21
22.283260500000001
  0
LINE
  8
_0-2____C_ä___1
  6
CONTINUOUS
 62
    7
 10
27.2772975
 20
22.283260500000001
 11
27.422251500000002
 21
22.428266500000003
  0
LINE
  8
_0-2____C_ä___1
  6
CONTINUOUS
 62
    7
 10
27.422251500000002
 20
22.428266500000003
 11
27.422251500000002
 21
22.458245500000004
  0
LINE
  8
_0-2____C_ä___1
  6
CONTINUOUS
 62
    7
 10
27.422251500000002
 20
22.458245500000004
 11
27.422251500000002
 21
22.523108500000003
  0
LINE
  8
_0-2____C_ä___1
  6
CONTINUOUS
 62
    7
 10
27.422251500000002
 20
22.523108500000003
 11
27.422251500000002
 21
22.585241499999999
  0
LINE
  8
_0-2____C_ä___1
  6
CONTINUOUS
 62
    7
 10
27.422251500000002
 20
22.585241499999999
 11
27.480191500000004
 21
22.636393500000001
  0
LINE
  8
_0-2____C_ä___1
  6
CONTINUOUS
 62
    7
 10
27.480191500000004
 20
22.636393500000001
 11
27.587795499999999
 21
22.680935500000004
  0
LINE
  8
_0-2____C_ä___1
  6
CONTINUOUS
 62
    7
 10
27.587795499999999
 20
22.680935500000004
 11
27.645736499999998
 21
22.699979499999998
  0
LINE
  8
_0-2____C_ä___1
  6
CONTINUOUS
 62
    7
 10
27.645736499999998
 20
22.699979499999998
 11
27.736308500000003
 21
22.790569500000004
  0
LINE
  8
_0-2____C_ä___1
  6
CONTINUOUS
 62
    7
 10
27.736308500000003
 20
22.790569500000004
 11
27.761344500000003
 21
22.7990505
  0
LINE
  8
_0-2____C_ä___1
  6
CONTINUOUS
 62
    7
 10
27.761344500000003
 20
22.7990505
 11
27.8078395
 21
22.826328500000002
  0
LINE
  8
_0-2____C_ä___1
  6
CONTINUOUS
 62
    7
 10
27.8078395
 20
22.826328500000002
 11
27.832874500000003
 21
22.875162500000002
  0
LINE
  8
_0-2____C_ä___1
  6
CONTINUOUS
 62
    7
 10
27.832874500000003
 20
22.875162500000002
 11
27.9201105
 21
22.942708499999998
  0
LINE
  8
_0-2____C_ä___1
  6
CONTINUOUS
 62
    7
 10
27.9201105
 20
22.942708499999998
 11
28.112023499999999
 21
23.004865500000001
  0
LINE
  8
_0-2____C_ä___1
  6
CONTINUOUS
 62
    7
 10
28.112023499999999
 20
23.004865500000001
 11
28.303922499999999
 21
23.032138500000002
  0
LINE
  8
_0-2____C_ä___1
  6
CONTINUOUS
 62
    7
 10
28.303922499999999
 20
23.032138500000002
 11
28.451971500000003
 21
23.079101500000004
  0
LINE
  8
_0-2____C_ä___1
  6
CONTINUOUS
 62
    7
 10
28.451971500000003
 20
23.079101500000004
 11
28.562469499999999
 21
23.1663195
  0
LINE
  8
_0-2____C_ä___1
  6
CONTINUOUS
 62
    7
 10
28.562469499999999
 20
23.1663195
 11
28.605868500000003
 21
23.213282499999998
  0
LINE
  8
_0-2____C_ä___1
  6
CONTINUOUS
 62
    7
 10
28.605868500000003
 20
23.213282499999998
 11
28.895775500000003
 21
23.237363500000001
  0
LINE
  8
_0-2____C_ä___1
  6
CONTINUOUS
 62
    7
 10
28.895775500000003
 20
23.237363500000001
 11
29.173482500000002
 21
23.358271500000001
  0
LINE
  8
_0-2____C_ä___1
  6
CONTINUOUS
 62
    7
 10
29.173482500000002
 20
23.358271500000001
 11
29.270154500000004
 21
23.358271500000001
  0
LINE
  8
_0-2____C_ä___1
  6
CONTINUOUS
 62
    7
 10
29.270154500000004
 20
23.358271500000001
 11
29.366787500000001
 21
23.394357499999998
  0
LINE
  8
_0-2____C_ä___1
  6
CONTINUOUS
 62
    7
 10
29.366787500000001
 20
23.394357499999998
 11
29.487123500000003
 21
23.413176499999999
  0
LINE
  8
_0-2____C_ä___1
  6
CONTINUOUS
 62
    7
 10
29.487123500000003
 20
23.413176499999999
 11
29.765811500000002
 21
23.448125500000003
  0
LINE
  8
_0-2____C_ä___1
  6
CONTINUOUS
 62
    7
 10
29.765811500000002
 20
23.448125500000003
 11
30.079371500000004
 21
23.4669445
  0
LINE
  8
_0-2____C_ä___1
  6
CONTINUOUS
 62
    7
 10
30.079371500000004
 20
23.4669445
 11
30.291874500000002
 21
23.4669445
  0
LINE
  8
_0-2____C_ä___1
  6
CONTINUOUS
 62
    7
 10
30.291874500000002
 20
23.4669445
 11
30.442626500000003
 21
23.4669445
  0
LINE
  8
_0-2____C_ä___1
  6
CONTINUOUS
 62
    7
 10
30.442626500000003
 20
23.4669445
 11
30.6712065
 21
23.4669445
  0
LINE
  8
_0-2____C_ä___1
  6
CONTINUOUS
 62
    7
 10
30.6712065
 20
23.4669445
 11
30.9454475
 21
23.473194500000002
  0
LINE
  8
_0-2____C_ä___1
  6
CONTINUOUS
 62
    7
 10
30.9454475
 20
23.473194500000002
 11
31.149873500000002
 21
23.4606505
  0
LINE
  8
_0-2____C_ä___1
  6
CONTINUOUS
 62
    7
 10
31.149873500000002
 20
23.4606505
 11
31.2992165
 21
23.382369499999999
  0
LINE
  8
_0-2____C_ä___1
  6
CONTINUOUS
 62
    7
 10
31.2992165
 20
23.382369499999999
 11
31.472772500000005
 21
23.2808125
  0
LINE
  8
_0-2____C_ä___1
  6
CONTINUOUS
 62
    7
 10
31.472772500000005
 20
23.2808125
 11
31.6691675
 21
23.218193499999998
  0
LINE
  8
_0-2____C_ä___1
  6
CONTINUOUS
 62
    7
 10
31.6691675
 20
23.218193499999998
 11
31.782321500000002
 21
23.177042499999999
  0
LINE
  8
_0-2____C_ä___1
  6
CONTINUOUS
 62
    7
 10
31.782321500000002
 20
23.177042499999999
 11
31.8503425
 21
23.109002500000003
  0
LINE
  8
_0-2____C_ä___1
  6
CONTINUOUS
 62
    7
 10
31.8503425
 20
23.109002500000003
 11
31.955915500000003
 21
23.0034615
  0
LINE
  8
_0-2____C_ä___1
  6
CONTINUOUS
 62
    7
 10
31.955915500000003
 20
23.0034615
 11
32.060134499999997
 21
22.899295500000001
  0
LINE
  8
_0-2____C_ä___1
  6
CONTINUOUS
 62
    7
 10
32.060134499999997
 20
22.899295500000001
 11
32.161491500000004
 21
22.759619499999999
  0
LINE
  8
_0-2____C_ä___1
  6
CONTINUOUS
 62
    7
 10
32.161491500000004
 20
22.759619499999999
 11
32.2548405
 21
22.5951755
  0
LINE
  8
_0-2____C_ä___1
  6
CONTINUOUS
 62
    7
 10
32.2548405
 20
22.5951755
 11
32.295815500000003
 21
22.515924500000001
  0
LINE
  8
_0-2____C_ä___1
  6
CONTINUOUS
 62
    7
 10
27.472790499999999
 20
21.958386500000003
 11
27.461781500000001
 21
21.924887500000001
  0
LINE
  8
_0-2____C_ä___1
  6
CONTINUOUS
 62
    7
 10
27.461781500000001
 20
21.924887500000001
 11
27.441337499999999
 21
21.8522675
  0
LINE
  8
_0-2____C_ä___1
  6
CONTINUOUS
 62
    7
 10
27.441337499999999
 20
21.8522675
 11
27.430329499999999
 21
21.782342499999999
  0
LINE
  8
_0-2____C_ä___1
  6
CONTINUOUS
 62
    7
 10
27.430329499999999
 20
21.782342499999999
 11
27.409871499999998
 21
21.723513499999999
  0
LINE
  8
_0-2____C_ä___1
  6
CONTINUOUS
 62
    7
 10
27.409871499999998
 20
21.723513499999999
 11
27.371878500000005
 21
21.6714305
  0
LINE
  8
_0-2____C_ä___1
  6
CONTINUOUS
 62
    7
 10
27.371878500000005
 20
21.6714305
 11
27.351420500000003
 21
21.648982500000002
  0
LINE
  8
_0-2____C_ä___1
  6
CONTINUOUS
 62
    7
 10
27.351420500000003
 20
21.648982500000002
 11
27.349859500000004
 21
21.622412499999999
  0
LINE
  8
_0-2____C_ä___1
  6
CONTINUOUS
 62
    7
 10
27.349859500000004
 20
21.622412499999999
 11
27.435945500000003
 21
21.461001499999998
  0
LINE
  8
_0-2____C_ä___1
  6
CONTINUOUS
 62
    7
 10
27.435945500000003
 20
21.461001499999998
 11
27.7458335
 21
21.042195500000002
  0
LINE
  8
_0-2____C_ä___1
  6
CONTINUOUS
 62
    7
 10
27.964288499999999
 20
22.3892135
 11
27.925190500000003
 21
22.440648499999998
  0
LINE
  8
_0-2____C_ä___1
  6
CONTINUOUS
 62
    7
 10
27.925190500000003
 20
22.440648499999998
 11
27.886092500000004
 21
22.558129500000003
  0
LINE
  8
_0-2____C_ä___1
  6
CONTINUOUS
 62
    7
 10
27.886092500000004
 20
22.558129500000003
 11
27.964288499999999
 21
22.686422499999999
  0
LINE
  8
_0-2____C_ä___1
  6
CONTINUOUS
 62
    7
 10
27.964288499999999
 20
22.686422499999999
 11
28.088086499999999
 21
22.784816500000002
  0
LINE
  8
_0-2____C_ä___1
  6
CONTINUOUS
 62
    7
 10
28.088086499999999
 20
22.784816500000002
 11
28.133696500000003
 21
22.846804500000005
  0
LINE
  8
_0-2____C_ä___1
  6
CONTINUOUS
 62
    7
 10
28.133696500000003
 20
22.846804500000005
 11
28.140211499999999
 21
22.868360499999998
  0
LINE
  8
_0-2____C_ä___1
  6
CONTINUOUS
 62
    7
 10
28.140211499999999
 20
22.868360499999998
 11
28.225366500000003
 21
22.9079175
  0
LINE
  8
_0-2____C_ä___1
  6
CONTINUOUS
 62
    7
 10
28.225366500000003
 20
22.9079175
 11
28.400848500000002
 21
22.974437500000001
  0
LINE
  8
_0-2____C_ä___1
  6
CONTINUOUS
 62
    7
 10
28.400848500000002
 20
22.974437500000001
 11
28.5466835
 21
22.9896955
  0
LINE
  8
_0-2____C_ä___1
  6
CONTINUOUS
 62
    7
 10
28.5466835
 20
22.9896955
 11
28.681507499999999
 21
22.990902500000004
  0
LINE
  8
_0-2____C_ä___1
  6
CONTINUOUS
 62
    7
 10
28.681507499999999
 20
22.990902500000004
 11
28.836544500000002
 21
23.031111499999998
  0
LINE
  8
_0-2____C_ä___1
  6
CONTINUOUS
 62
    7
 10
28.836544500000002
 20
23.031111499999998
 11
28.910690500000001
 21
23.056479499999998
  0
LINE
  8
_0-2____C_ä___1
  6
CONTINUOUS
 62
    7
 10
28.176678500000005
 20
22.316333499999999
 11
28.170367499999998
 21
22.260833500000004
  0
LINE
  8
_0-2____C_ä___1
  6
CONTINUOUS
 62
    7
 10
28.170367499999998
 20
22.260833500000004
 11
28.158647500000001
 21
22.147349500000004
  0
LINE
  8
_0-2____C_ä___1
  6
CONTINUOUS
 62
    7
 10
28.158647500000001
 20
22.147349500000004
 11
28.152336500000004
 21
22.055400500000005
  0
LINE
  8
_0-2____C_ä___1
  6
CONTINUOUS
 62
    7
 10
28.152336500000004
 20
22.055400500000005
 11
28.142908500000001
 21
22.002892500000002
  0
LINE
  8
_0-2____C_ä___1
  6
CONTINUOUS
 62
    7
 10
28.142908500000001
 20
22.002892500000002
 11
28.165837499999999
 21
21.9220115
  0
LINE
  8
_0-2____C_ä___1
  6
CONTINUOUS
 62
    7
 10
28.165837499999999
 20
21.9220115
 11
28.297946500000002
 21
21.7642205
  0
LINE
  8
_0-2____C_ä___1
  6
CONTINUOUS
 62
    7
 10
28.297946500000002
 20
21.7642205
 11
28.485106500000001
 21
21.588061499999998
  0
LINE
  8
_0-2____C_ä___1
  6
CONTINUOUS
 62
    7
 10
28.485106500000001
 20
21.588061499999998
 11
28.610260499999999
 21
21.483376499999999
  0
LINE
  8
_0-2____C_ä___1
  6
CONTINUOUS
 62
    7
 10
28.610260499999999
 20
21.483376499999999
 11
28.655875500000004
 21
21.448787499999998
  0
LINE
  8
_0-2____C_ä___1
  6
CONTINUOUS
 62
    7
 10
27.921792499999999
 20
21.4730405
 11
27.979991500000001
 21
21.397986500000002
  0
LINE
  8
_0-2____C_ä___1
  6
CONTINUOUS
 62
    7
 10
27.979991500000001
 20
21.397986500000002
 11
28.0880765
 21
21.2528045
  0
LINE
  8
_0-2____C_ä___1
  6
CONTINUOUS
 62
    7
 10
28.0880765
 20
21.2528045
 11
28.146276499999999
 21
21.157469500000001
  0
LINE
  8
_0-2____C_ä___1
  6
CONTINUOUS
 62
    7
 10
28.146276499999999
 20
21.157469500000001
 11
28.179539500000001
 21
21.1190395
  0
LINE
  8
_0-2____C_ä___1
  6
CONTINUOUS
 62
    7
 10
28.179539500000001
 20
21.1190395
 11
28.274834499999997
 21
21.088710500000001
  0
LINE
  8
_0-2____C_ä___1
  6
CONTINUOUS
 62
    7
 10
28.274834499999997
 20
21.088710500000001
 11
28.425415500000003
 21
21.1029695
  0
LINE
  8
_0-2____C_ä___1
  6
CONTINUOUS
 62
    7
 10
29.062378500000001
 20
22.9896955
 11
29.099677500000002
 21
22.938896499999998
  0
LINE
  8
_0-2____C_ä___1
  6
CONTINUOUS
 62
    7
 10
29.099677500000002
 20
22.938896499999998
 11
29.2151575
 21
22.858450500000004
  0
LINE
  8
_0-2____C_ä___1
  6
CONTINUOUS
 62
    7
 10
29.2151575
 20
22.858450500000004
 11
29.4141935
 21
22.856285499999998
  0
LINE
  8
_0-2____C_ä___1
  6
CONTINUOUS
 62
    7
 10
29.298986500000002
 20
23.135336500000001
 11
29.319213500000004
 21
23.180957500000002
  0
LINE
  8
_0-2____C_ä___1
  6
CONTINUOUS
 62
    7
 10
29.319213500000004
 20
23.180957500000002
 11
29.493137500000003
 21
23.209054500000004
  0
LINE
  8
_0-2____C_ä___1
  6
CONTINUOUS
 62
    7
 10
29.493137500000003
 20
23.209054500000004
 11
29.990626500000005
 21
23.056479499999998
  0
LINE
  8
_0-2____C_ä___1
  6
CONTINUOUS
 62
    7
 10
30.2091165
 20
22.9169345
 11
30.198080500000003
 21
22.9594235
  0
LINE
  8
_0-2____C_ä___1
  6
CONTINUOUS
 62
    7
 10
30.198080500000003
 20
22.9594235
 11
30.201857500000003
 21
23.038329500000003
  0
LINE
  8
_0-2____C_ä___1
  6
CONTINUOUS
 62
    7
 10
30.201857500000003
 20
23.038329500000003
 11
30.2757775
 21
23.080818499999999
  0
LINE
  8
_0-2____C_ä___1
  6
CONTINUOUS
 62
    7
 10
30.2757775
 20
23.080818499999999
 11
30.377999500000001
 21
23.093394500000002
  0
LINE
  8
_0-2____C_ä___1
  6
CONTINUOUS
 62
    7
 10
30.377999500000001
 20
23.093394500000002
 11
30.434408500000004
 21
23.116749500000001
  0
LINE
  8
_0-2____C_ä___1
  6
CONTINUOUS
 62
    7
 10
30.434408500000004
 20
23.116749500000001
 11
30.451718499999998
 21
23.1293255
  0
LINE
  8
_0-2____C_ä___1
  6
CONTINUOUS
 62
    7
 10
31.125169499999998
 20
23.281012500000003
 11
31.166279499999998
 21
23.287067500000003
  0
LINE
  8
_0-2____C_ä___1
  6
CONTINUOUS
 62
    7
 10
31.166279499999998
 20
23.287067500000003
 11
31.268061500000002
 21
23.272875499999998
  0
LINE
  8
_0-2____C_ä___1
  6
CONTINUOUS
 62
    7
 10
31.268061500000002
 20
23.272875499999998
 11
31.398191500000003
 21
23.189907500000004
  0
LINE
  8
_0-2____C_ä___1
  6
CONTINUOUS
 62
    7
 10
31.398191500000003
 20
23.189907500000004
 11
31.514113500000004
 21
23.0739935
  0
LINE
  8
_0-2____C_ä___1
  6
CONTINUOUS
 62
    7
 10
31.514113500000004
 20
23.0739935
 11
31.589611500000004
 21
22.998504499999999
  0
LINE
  8
_0-2____C_ä___1
  6
CONTINUOUS
 62
    7
 10
31.589611500000004
 20
22.998504499999999
 11
31.6165795
 21
22.971541500000001
  0
LINE
  8
_0-2____C_ä___1
  6
CONTINUOUS
 62
    7
 10
29.329304500000003
 20
22.492207500000003
 11
29.3343615
 21
22.487161499999999
  0
LINE
  8
_0-2____C_ä___1
  6
CONTINUOUS
 62
    7
 10
29.3343615
 20
22.487161499999999
 11
29.357631499999997
 21
22.463948500000001
  0
LINE
  8
_0-2____C_ä___1
  6
CONTINUOUS
 62
    7
 10
29.357631499999997
 20
22.463948500000001
 11
29.411265500000003
 21
22.4104545
  0
LINE
  8
_0-2____C_ä___1
  6
CONTINUOUS
 62
    7
 10
29.411265500000003
 20
22.4104545
 11
29.480522500000003
 21
22.361082499999998
  0
LINE
  8
_0-2____C_ä___1
  6
CONTINUOUS
 62
    7
 10
29.480522500000003
 20
22.361082499999998
 11
29.532991500000005
 21
22.327210500000003
  0
LINE
  8
_0-2____C_ä___1
  6
CONTINUOUS
 62
    7
 10
29.532991500000005
 20
22.327210500000003
 11
29.553788500000003
 21
22.261659500000004
  0
LINE
  8
_0-2____C_ä___1
  6
CONTINUOUS
 62
    7
 10
29.553788500000003
 20
22.261659500000004
 11
29.581316500000003
 21
22.185405500000002
  0
LINE
  8
_0-2____C_ä___1
  6
CONTINUOUS
 62
    7
 10
29.581316500000003
 20
22.185405500000002
 11
29.6324395
 21
22.128680500000002
  0
LINE
  8
_0-2____C_ä___1
  6
CONTINUOUS
 62
    7
 10
29.6324395
 20
22.128680500000002
 11
29.6599675
 21
22.058501500000002
  0
LINE
  8
_0-2____C_ä___1
  6
CONTINUOUS
 62
    7
 10
28.843856500000001
 20
21.648982500000002
 11
28.855127499999998
 21
21.641516499999998
  0
LINE
  8
_0-2____C_ä___1
  6
CONTINUOUS
 62
    7
 10
28.855127499999998
 20
21.641516499999998
 11
28.933837499999999
 21
21.613831500000003
  0
LINE
  8
_0-2____C_ä___1
  6
CONTINUOUS
 62
    7
 10
28.933837499999999
 20
21.613831500000003
 11
29.147334499999999
 21
21.557996500000002
  0
LINE
  8
_0-2____C_ä___1
  6
CONTINUOUS
 62
    7
 10
29.147334499999999
 20
21.557996500000002
 11
29.338870500000002
 21
21.494881499999998
  0
LINE
  8
_0-2____C_ä___1
  6
CONTINUOUS
 62
    7
 10
29.338870500000002
 20
21.494881499999998
 11
29.385496500000002
 21
21.454036500000001
  0
LINE
  8
_0-2____C_ä___1
  6
CONTINUOUS
 62
    7
 10
29.385496500000002
 20
21.454036500000001
 11
29.405166500000004
 21
21.439519500000003
  0
LINE
  8
_0-2____C_ä___1
  6
CONTINUOUS
 62
    7
 10
29.405166500000004
 20
21.439519500000003
 11
29.490669500000003
 21
21.496291499999998
  0
LINE
  8
_0-2____C_ä___1
  6
CONTINUOUS
 62
    7
 10
29.490669500000003
 20
21.496291499999998
 11
29.601818500000004
 21
21.622539500000002
  0
LINE
  8
_0-2____C_ä___1
  6
CONTINUOUS
 62
    7
 10
29.601818500000004
 20
21.622539500000002
 11
29.657004499999999
 21
21.752162500000001
  0
LINE
  8
_0-2____C_ä___1
  6
CONTINUOUS
 62
    7
 10
28.540618500000001
 20
20.854094500000002
 11
28.561743500000002
 21
20.8738925
  0
LINE
  8
_0-2____C_ä___1
  6
CONTINUOUS
 62
    7
 10
28.561743500000002
 20
20.8738925
 11
28.624660500000001
 21
20.886983499999999
  0
LINE
  8
_0-2____C_ä___1
  6
CONTINUOUS
 62
    7
 10
28.624660500000001
 20
20.886983499999999
 11
28.728685500000001
 21
20.823914500000001
  0
LINE
  8
_0-2____C_ä___1
  6
CONTINUOUS
 62
    7
 10
28.728685500000001
 20
20.823914500000001
 11
28.801049500000001
 21
20.7161185
  0
LINE
  8
_0-2____C_ä___1
  6
CONTINUOUS
 62
    7
 10
28.801049500000001
 20
20.7161185
 11
28.8181385
 21
20.633295500000003
  0
LINE
  8
_0-2____C_ä___1
  6
CONTINUOUS
 62
    7
 10
28.8181385
 20
20.633295500000003
 11
28.853053500000001
 21
20.562981500000003
  0
LINE
  8
_0-2____C_ä___1
  6
CONTINUOUS
 62
    7
 10
28.728685500000001
 20
21.108962500000001
 11
28.770473500000005
 21
21.077742499999999
  0
LINE
  8
_0-2____C_ä___1
  6
CONTINUOUS
 62
    7
 10
28.770473500000005
 20
21.077742499999999
 11
28.868868500000005
 21
21.0128065
  0
LINE
  8
_0-2____C_ä___1
  6
CONTINUOUS
 62
    7
 10
28.868868500000005
 20
21.0128065
 11
28.983415500000003
 21
20.9572395
  0
LINE
  8
_0-2____C_ä___1
  6
CONTINUOUS
 62
    7
 10
28.983415500000003
 20
20.9572395
 11
29.160970500000005
 21
20.768093499999999
  0
LINE
  8
_0-2____C_ä___1
  6
CONTINUOUS
 62
    7
 10
29.160970500000005
 20
20.768093499999999
 11
29.376267500000001
 21
20.454862500000001
  0
LINE
  8
_0-2____C_ä___1
  6
CONTINUOUS
 62
    7
 10
29.376267500000001
 20
20.454862500000001
 11
29.480992500000003
 21
20.289924500000001
  0
LINE
  8
_0-2____C_ä___1
  6
CONTINUOUS
 62
    7
 10
28.862148500000004
 20
21.2485575
 11
28.908457499999997
 21
21.233273499999999
  0
LINE
  8
_0-2____C_ä___1
  6
CONTINUOUS
 62
    7
 10
28.908457499999997
 20
21.233273499999999
 11
29.022191499999998
 21
21.150589499999999
  0
LINE
  8
_0-2____C_ä___1
  6
CONTINUOUS
 62
    7
 10
29.022191499999998
 20
21.150589499999999
 11
29.165558499999999
 21
20.945252499999999
  0
LINE
  8
_0-2____C_ä___1
  6
CONTINUOUS
 62
    7
 10
29.165558499999999
 20
20.945252499999999
 11
29.211159500000004
 21
20.9310735
  0
LINE
  8
_0-2____C_ä___1
  6
CONTINUOUS
 62
    7
 10
29.211159500000004
 20
20.9310735
 11
29.307993499999998
 21
20.916895499999999
  0
LINE
  8
_0-2____C_ä___1
  6
CONTINUOUS
 62
    7
 10
29.307993499999998
 20
20.916895499999999
 11
29.396106499999998
 21
20.945252499999999
  0
LINE
  8
_0-2____C_ä___1
  6
CONTINUOUS
 62
    7
 10
29.396106499999998
 20
20.945252499999999
 11
29.431766499999998
 21
20.9436745
  0
LINE
  8
_0-2____C_ä___1
  6
CONTINUOUS
 62
    7
 10
29.431766499999998
 20
20.9436745
 11
29.453347500000003
 21
20.873974500000003
  0
LINE
  8
_0-2____C_ä___1
  6
CONTINUOUS
 62
    7
 10
29.453347500000003
 20
20.873974500000003
 11
29.523438499999997
 21
20.829907500000001
  0
LINE
  8
_0-2____C_ä___1
  6
CONTINUOUS
 62
    7
 10
29.523438499999997
 20
20.829907500000001
 11
29.604554500000003
 21
20.829907500000001
  0
LINE
  8
_0-2____C_ä___1
  6
CONTINUOUS
 62
    7
 10
29.604554500000003
 20
20.829907500000001
 11
29.634439500000003
 21
20.829907500000001
  0
LINE
  8
_0-2____C_ä___1
  6
CONTINUOUS
 62
    7
 10
29.634439500000003
 20
20.829907500000001
 11
29.638708500000003
 21
20.829907500000001
  0
LINE
  8
_0-2____C_ä___1
  6
CONTINUOUS
 62
    7
 10
30.081611500000005
 20
21.054391500000001
 11
30.067457500000003
 21
20.998869500000001
  0
LINE
  8
_0-2____C_ä___1
  6
CONTINUOUS
 62
    7
 10
30.067457500000003
 20
20.998869500000001
 11
30.073522500000003
 21
20.877278500000003
  0
LINE
  8
_0-2____C_ä___1
  6
CONTINUOUS
 62
    7
 10
30.073522500000003
 20
20.877278500000003
 11
30.172596499999997
 21
20.757080500000001
  0
LINE
  8
_0-2____C_ä___1
  6
CONTINUOUS
 62
    7
 10
30.172596499999997
 20
20.757080500000001
 11
30.204511500000002
 21
20.764491500000002
  0
LINE
  8
_0-2____C_ä___1
  6
CONTINUOUS
 62
    7
 10
30.204511500000002
 20
20.764491500000002
 11
30.2701265
 21
20.771901500000002
  0
LINE
  8
_0-2____C_ä___1
  6
CONTINUOUS
 62
    7
 10
30.2701265
 20
20.771901500000002
 11
30.324249500000004
 21
20.757080500000001
  0
LINE
  8
_0-2____C_ä___1
  6
CONTINUOUS
 62
    7
 10
30.014950499999998
 20
22.176823500000001
 11
30.117387500000003
 21
22.194777500000001
  0
LINE
  8
_0-2____C_ä___1
  6
CONTINUOUS
 62
    7
 10
30.117387500000003
 20
22.194777500000001
 11
30.3573205
 21
22.239680499999999
  0
LINE
  8
_0-2____C_ä___1
  6
CONTINUOUS
 62
    7
 10
30.3573205
 20
22.239680499999999
 11
30.633688500000002
 21
22.298090500000001
  0
LINE
  8
_0-2____C_ä___1
  6
CONTINUOUS
 62
    7
 10
30.633688500000002
 20
22.298090500000001
 11
30.798462499999999
 21
22.381698499999999
  0
LINE
  8
_0-2____C_ä___1
  6
CONTINUOUS
 62
    7
 10
30.798462499999999
 20
22.381698499999999
 11
30.8472355
 21
22.473394499999998
  0
LINE
  8
_0-2____C_ä___1
  6
CONTINUOUS
 62
    7
 10
30.8472355
 20
22.473394499999998
 11
30.894692500000005
 21
22.516545500000003
  0
LINE
  8
_0-2____C_ä___1
  6
CONTINUOUS
 62
    7
 10
30.894692500000005
 20
22.516545500000003
 11
30.9544265
 21
22.5935995
  0
LINE
  8
_0-2____C_ä___1
  6
CONTINUOUS
 62
    7
 10
30.9544265
 20
22.5935995
 11
30.976433500000002
 21
22.736700499999998
  0
LINE
  8
_0-2____C_ä___1
  6
CONTINUOUS
 62
    7
 10
30.976433500000002
 20
22.736700499999998
 11
30.979577500000001
 21
22.813754500000002
  0
LINE
  8
_0-2____C_ä___1
  6
CONTINUOUS
 62
    7
 10
31.106976499999998
 20
22.6378135
 11
31.141569500000003
 21
22.607950500000001
  0
LINE
  8
_0-2____C_ä___1
  6
CONTINUOUS
 62
    7
 10
31.141569500000003
 20
22.607950500000001
 11
31.221982500000003
 21
22.552490500000005
  0
LINE
  8
_0-2____C_ä___1
  6
CONTINUOUS
 62
    7
 10
31.221982500000003
 20
22.552490500000005
 11
31.313168500000003
 21
22.522627499999999
  0
LINE
  8
_0-2____C_ä___1
  6
CONTINUOUS
 62
    7
 10
31.313168500000003
 20
22.522627499999999
 11
31.3865795
 21
22.549469500000001
  0
LINE
  8
_0-2____C_ä___1
  6
CONTINUOUS
 62
    7
 10
31.3865795
 20
22.549469500000001
 11
31.439044500000001
 21
22.559438499999999
  0
LINE
  8
_0-2____C_ä___1
  6
CONTINUOUS
 62
    7
 10
31.439044500000001
 20
22.559438499999999
 11
31.473986500000002
 21
22.446695500000004
  0
LINE
  8
_0-2____C_ä___1
  6
CONTINUOUS
 62
    7
 10
31.473986500000002
 20
22.446695500000004
 11
31.499011500000002
 21
22.3261465
  0
LINE
  8
_0-2____C_ä___1
  6
CONTINUOUS
 62
    7
 10
31.499011500000002
 20
22.3261465
 11
31.522729499999997
 21
22.321524499999999
  0
LINE
  8
_0-2____C_ä___1
  6
CONTINUOUS
 62
    7
 10
31.522729499999997
 20
22.321524499999999
 11
31.549847499999998
 21
22.340501500000002
  0
LINE
  8
_0-2____C_ä___1
  6
CONTINUOUS
 62
    7
 10
31.549847499999998
 20
22.340501500000002
 11
31.554015499999998
 21
22.298844500000001
  0
LINE
  8
_0-2____C_ä___1
  6
CONTINUOUS
 62
    7
 10
31.554015499999998
 20
22.298844500000001
 11
31.514362500000001
 21
22.221479500000001
  0
LINE
  8
_0-2____C_ä___1
  6
CONTINUOUS
 62
    7
 10
31.514362500000001
 20
22.221479500000001
 11
31.443703499999998
 21
22.179821500000003
  0
LINE
  8
_0-2____C_ä___1
  6
CONTINUOUS
 62
    7
 10
31.5438185
 20
22.704579499999998
 11
31.559101499999997
 21
22.6468445
  0
LINE
  8
_0-2____C_ä___1
  6
CONTINUOUS
 62
    7
 10
31.559101499999997
 20
22.6468445
 11
31.625616500000003
 21
22.525745499999999
  0
LINE
  8
_0-2____C_ä___1
  6
CONTINUOUS
 62
    7
 10
31.625616500000003
 20
22.525745499999999
 11
31.774362500000002
 21
22.419446499999999
  0
LINE
  8
_0-2____C_ä___1
  6
CONTINUOUS
 62
    7
 10
31.774362500000002
 20
22.419446499999999
 11
31.882217500000003
 21
22.335162499999999
  0
LINE
  8
_0-2____C_ä___1
  6
CONTINUOUS
 62
    7
 10
31.882217500000003
 20
22.335162499999999
 11
31.8727555
 21
22.254952500000002
  0
LINE
  8
_0-2____C_ä___1
  6
CONTINUOUS
 62
    7
 10
31.8727555
 20
22.254952500000002
 11
31.847123499999999
 21
22.219234499999999
  0
LINE
  8
_0-2____C_ä___1
  6
CONTINUOUS
 62
    7
 10
31.860215499999999
 20
22.1237335
 11
31.8659885
 21
22.084623499999999
  0
LINE
  8
_0-2____C_ä___1
  6
CONTINUOUS
 62
    7
 10
31.8659885
 20
22.084623499999999
 11
31.905256500000004
 21
21.9966355
  0
LINE
  8
_0-2____C_ä___1
  6
CONTINUOUS
 62
    7
 10
31.905256500000004
 20
21.9966355
 11
32.010939499999999
 21
21.903783500000003
  0
LINE
  8
_0-2____C_ä___1
  6
CONTINUOUS
 62
    7
 10
32.010939499999999
 20
21.903783500000003
 11
32.145175500000001
 21
21.889951499999999
  0
LINE
  8
_0-2____C_ä___1
  6
CONTINUOUS
 62
    7
 10
32.145175500000001
 20
21.889951499999999
 11
32.2374735
 21
21.948825499999998
  0
LINE
  8
_0-2____C_ä___1
  6
CONTINUOUS
 62
    7
 10
32.2374735
 20
21.948825499999998
 11
32.271801500000002
 21
21.988806499999999
  0
LINE
  8
_0-2____C_ä___1
  6
CONTINUOUS
 62
    7
 10
32.271801500000002
 20
21.988806499999999
 11
32.271801500000002
 21
22.1160535
  0
LINE
  8
_0-2____C_ä___1
  6
CONTINUOUS
 62
    7
 10
31.602072499999998
 20
21.949704499999999
 11
31.613575500000003
 21
21.914286500000003
  0
LINE
  8
_0-2____C_ä___1
  6
CONTINUOUS
 62
    7
 10
31.613575500000003
 20
21.914286500000003
 11
31.655281500000001
 21
21.837649499999998
  0
LINE
  8
_0-2____C_ä___1
  6
CONTINUOUS
 62
    7
 10
31.655281500000001
 20
21.837649499999998
 11
31.7379845
 21
21.7642205
  0
LINE
  8
_0-2____C_ä___1
  6
CONTINUOUS
 62
    7
 10
31.7379845
 20
21.7642205
 11
31.845833499999998
 21
21.701119500000004
  0
LINE
  8
_0-2____C_ä___1
  6
CONTINUOUS
 62
    7
 10
31.845833499999998
 20
21.701119500000004
 11
31.953995500000005
 21
21.6436995
  0
LINE
  8
_0-2____C_ä___1
  6
CONTINUOUS
 62
    7
 10
31.953995500000005
 20
21.6436995
 11
32.059478500000004
 21
21.618632500000004
  0
LINE
  8
_0-2____C_ä___1
  6
CONTINUOUS
 62
    7
 10
31.495240500000001
 20
20.696377500000001
 11
31.538612499999999
 21
20.738190500000002
  0
LINE
  8
_0-2____C_ä___1
  6
CONTINUOUS
 62
    7
 10
31.538612499999999
 20
20.738190500000002
 11
31.639960500000001
 21
20.852840499999999
  0
LINE
  8
_0-2____C_ä___1
  6
CONTINUOUS
 62
    7
 10
31.639960500000001
 20
20.852840499999999
 11
31.756138499999999
 21
21.024144500000002
  0
LINE
  8
_0-2____C_ä___1
  6
CONTINUOUS
 62
    7
 10
31.756138499999999
 20
21.024144500000002
 11
31.836031500000004
 21
21.163721500000001
  0
LINE
  8
_0-2____C_ä___1
  6
CONTINUOUS
 62
    7
 10
31.836031500000004
 20
21.163721500000001
 11
31.881550500000003
 21
21.231212500000002
  0
LINE
  8
_0-2____C_ä___1
  6
CONTINUOUS
 62
    7
 10
31.881550500000003
 20
21.231212500000002
 11
31.929084500000002
 21
21.281838499999999
  0
LINE
  8
_0-2____C_ä___1
  6
CONTINUOUS
 62
    7
 10
31.929084500000002
 20
21.281838499999999
 11
31.992773499999998
 21
21.3075565
  0
LINE
  8
_0-2____C_ä___1
  6
CONTINUOUS
 62
    7
 10
31.992773499999998
 20
21.3075565
 11
32.054426499999998
 21
21.3137455
  0
LINE
  8
_0-2____C_ä___1
  6
CONTINUOUS
 62
    7
 10
32.054426499999998
 20
21.3137455
 11
32.101924500000003
 21
21.3759595
  0
LINE
  8
_0-2____C_ä___1
  6
CONTINUOUS
 62
    7
 10
32.101924500000003
 20
21.3759595
 11
32.137457500000004
 21
21.4938945
  0
LINE
  8
_0-2____C_ä___1
  6
CONTINUOUS
 62
    7
 10
32.137457500000004
 20
21.4938945
 11
32.199922500000007
 21
21.603751500000001
  0
LINE
  8
_0-2____C_ä___1
  6
CONTINUOUS
 62
    7
 10
32.199922500000007
 20
21.603751500000001
 11
32.332468499999997
 21
21.685328500000001
  0
LINE
  8
_0-2____C_ä___1
  6
CONTINUOUS
 62
    7
 10
31.392060500000003
 20
20.9390505
 11
31.403973500000003
 21
20.965810500000003
  0
LINE
  8
_0-2____C_ä___1
  6
CONTINUOUS
 62
    7
 10
31.403973500000003
 20
20.965810500000003
 11
31.438816500000001
 21
21.015506500000001
  0
LINE
  8
_0-2____C_ä___1
  6
CONTINUOUS
 62
    7
 10
31.438816500000001
 20
21.015506500000001
 11
31.495240500000001
 21
21.0422665
  0
LINE
  8
_0-2____C_ä___1
  6
CONTINUOUS
 62
    7
 10
31.495240500000001
 20
21.0422665
 11
31.572101499999999
 21
21.031487500000001
  0
LINE
  8
_0-2____C_ä___1
  6
CONTINUOUS
 62
    7
 10
31.572101499999999
 20
21.031487500000001
 11
31.644896500000002
 21
21.0207075
  0
LINE
  8
_0-2____C_ä___1
  6
CONTINUOUS
 62
    7
 10
31.644896500000002
 20
21.0207075
 11
31.677246500000003
 21
21.0422665
  0
LINE
  8
_0-2____C_ä___1
  6
CONTINUOUS
 62
    7
 10
31.204096499999999
 20
20.763144499999999
 11
31.176160499999998
 21
20.7533235
  0
LINE
  8
_0-2____C_ä___1
  6
CONTINUOUS
 62
    7
 10
31.176160499999998
 20
20.7533235
 11
31.0043325
 21
20.652751500000001
  0
LINE
  8
_0-2____C_ä___1
  6
CONTINUOUS
 62
    7
 10
31.0043325
 20
20.652751500000001
 11
30.755129499999999
 21
20.660066499999999
  0
LINE
  8
_0-2____C_ä___1
  6
CONTINUOUS
 62
    7
 10
30.391016500000003
 20
20.538590500000002
 11
30.423154499999999
 21
20.590502499999999
  0
LINE
  8
_0-2____C_ä___1
  6
CONTINUOUS
 62
    7
 10
30.423154499999999
 20
20.590502499999999
 11
30.518674499999999
 21
20.686909499999999
  0
LINE
  8
_0-2____C_ä___1
  6
CONTINUOUS
 62
    7
 10
30.518674499999999
 20
20.686909499999999
 11
30.676237500000003
 21
20.738820500000003
  0
LINE
  8
_0-2____C_ä___1
  6
CONTINUOUS
 62
    7
 10
30.729394500000001
 20
22.331163500000002
 11
30.808175500000001
 21
22.363708500000001
  0
LINE
  8
_0-2____C_ä___1
  6
CONTINUOUS
 62
    7
 10
30.808175500000001
 20
22.363708500000001
 11
30.989727500000001
 21
22.388903499999998
  0
LINE
  8
_0-2____C_ä___1
  6
CONTINUOUS
 62
    7
 10
30.989727500000001
 20
22.388903499999998
 11
31.191865500000002
 21
22.298090500000001
  0
LINE
  8
_0-2____C_ä___1
  6
CONTINUOUS
 62
    7
 10
31.191865500000002
 20
22.298090500000001
 11
31.322028500000002
 21
22.191460500000002
  0
LINE
  8
_0-2____C_ä___1
  6
CONTINUOUS
 62
    7
 10
31.322028500000002
 20
22.191460500000002
 11
31.369983500000004
 21
22.167067500000002
  0
LINE
  8
_0-2____C_ä___1
  6
CONTINUOUS
 62
    7
 10
31.369983500000004
 20
22.167067500000002
 11
31.376834500000001
 21
22.113055500000002
  0
LINE
  8
_0-2____C_ä___1
  6
CONTINUOUS
 62
    7
 10
31.376834500000001
 20
22.113055500000002
 11
31.376834500000001
 21
22.002997499999999
  0
LINE
  8
_0-2____C_ä___1
  6
CONTINUOUS
 62
    7
 10
31.376834500000001
 20
22.002997499999999
 11
31.376834500000001
 21
21.909820499999999
  0
LINE
  8
_0-2____C_ä___1
  6
CONTINUOUS
 62
    7
 10
31.376834500000001
 20
21.909820499999999
 11
31.376834500000001
 21
21.870537500000001
  0
LINE
  8
_0-2____C_ä___1
  6
CONTINUOUS
 62
    7
 10
31.376834500000001
 20
21.870537500000001
 11
31.402821500000002
 21
21.720297500000001
  0
LINE
  8
_0-2____C_ä___1
  6
CONTINUOUS
 62
    7
 10
31.402821500000002
 20
21.720297500000001
 11
31.406600500000003
 21
21.396776500000001
  0
LINE
  8
_0-2____C_ä___1
  6
CONTINUOUS
 62
    7
 10
31.406600500000003
 20
21.396776500000001
 11
31.276892499999999
 21
21.090773500000001
  0
LINE
  8
_0-2____C_ä___1
  6
CONTINUOUS
 62
    7
 10
31.276892499999999
 20
21.090773500000001
 11
31.096959499999997
 21
20.942645500000001
  0
LINE
  8
_0-2____C_ä___1
  6
CONTINUOUS
 62
    7
 10
31.096959499999997
 20
20.942645500000001
 11
30.990538500000003
 21
20.895146499999999
  0
LINE
  8
_0-2____C_ä___1
  6
CONTINUOUS
 62
    7
 10
30.990538500000003
 20
20.895146499999999
 11
30.906750500000001
 21
20.8430705
  0
LINE
  8
_0-2____C_ä___1
  6
CONTINUOUS
 62
    7
 10
30.906750500000001
 20
20.8430705
 11
30.7481005
 21
20.7819255
  0
LINE
  8
_0-2____C_ä___1
  6
CONTINUOUS
 62
    7
 10
30.7481005
 20
20.7819255
 11
30.526467500000003
 21
20.782899499999999
  0
LINE
  8
_0-2____C_ä___1
  6
CONTINUOUS
 62
    7
 10
30.526467500000003
 20
20.782899499999999
 11
30.354704499999997
 21
20.854094500000002
  0
LINE
  8
_0-2____C_ä___1
  6
CONTINUOUS
 62
    7
 10
30.354704499999997
 20
20.854094500000002
 11
30.210399500000001
 21
21.0485255
  0
LINE
  8
_0-2____C_ä___1
  6
CONTINUOUS
 62
    7
 10
30.210399500000001
 20
21.0485255
 11
30.066124500000001
 21
21.325165500000001
  0
LINE
  8
_0-2____C_ä___1
  6
CONTINUOUS
 62
    7
 10
30.066124500000001
 20
21.325165500000001
 11
30.027008500000001
 21
21.551865499999998
  0
LINE
  8
_0-2____C_ä___1
  6
CONTINUOUS
 62
    7
 10
30.027008500000001
 20
21.551865499999998
 11
30.072203500000001
 21
21.708506499999999
  0
LINE
  8
_0-2____C_ä___1
  6
CONTINUOUS
 62
    7
 10
30.072203500000001
 20
21.708506499999999
 11
30.105248500000002
 21
21.850296499999999
  0
LINE
  8
_0-2____C_ä___1
  6
CONTINUOUS
 62
    7
 10
30.105248500000002
 20
21.850296499999999
 11
30.118060500000002
 21
21.958386500000003
  0
LINE
  8
_0-2____C_ä___1
  6
CONTINUOUS
 62
    7
 10
30.118060500000002
 20
21.958386500000003
 11
30.120074500000001
 21
22.020160500000003
  0
LINE
  8
_0-2____C_ä___1
  6
CONTINUOUS
 62
    7
 10
30.120074500000001
 20
22.020160500000003
 11
30.138256500000001
 21
22.060378499999999
  0
LINE
  8
_0-2____C_ä___1
  6
CONTINUOUS
 62
    7
 10
30.138256500000001
 20
22.060378499999999
 11
30.190821499999998
 21
22.1160535
  0
LINE
  8
_0-2____C_ä___1
  6
CONTINUOUS
 62
    7
 10
30.190821499999998
 20
22.1160535
 11
30.2717445
 21
22.1826325
  0
LINE
  8
_0-2____C_ä___1
  6
CONTINUOUS
 62
    7
 10
30.2717445
 20
22.1826325
 11
30.342592500000002
 21
22.226734499999999
  0
LINE
  8
_0-2____C_ä___1
  6
CONTINUOUS
 62
    7
 10
30.342592500000002
 20
22.226734499999999
 11
30.372964500000002
 21
22.242694499999999
  0
LINE
  8
_0-2____C_ä___1
  6
CONTINUOUS
 62
    7
 10
30.885872500000001
 20
22.383117500000001
 11
31.066865500000002
 21
22.260673499999999
  0
LINE
  8
_0-2____C_ä___1
  6
CONTINUOUS
 62
    7
 10
31.066865500000002
 20
22.260673499999999
 11
31.205715499999997
 21
22.063100500000004
  0
LINE
  8
_0-2____C_ä___1
  6
CONTINUOUS
 62
    7
 10
31.205715499999997
 20
22.063100500000004
 11
31.289052499999997
 21
21.808974500000001
  0
LINE
  8
_0-2____C_ä___1
  6
CONTINUOUS
 62
    7
 10
30.9068875
 20
20.842999500000001
 11
30.848108500000002
 21
20.820798499999999
  0
LINE
  8
_0-2____C_ä___1
  6
CONTINUOUS
 62
    7
 10
30.848108500000002
 20
20.820798499999999
 11
30.787048499999997
 21
20.807140500000003
  0
LINE
  8
_0-2____C_ä___1
  6
CONTINUOUS
 62
    7
 10
30.787048499999997
 20
20.807140500000003
 11
30.724021499999999
 21
20.802486500000001
  0
LINE
  8
_0-2____C_ä___1
  6
CONTINUOUS
 62
    7
 10
30.724021499999999
 20
20.802486500000001
 11
30.496999500000001
 21
20.865833500000001
  0
LINE
  8
_0-2____C_ä___1
  6
CONTINUOUS
 62
    7
 10
30.496999500000001
 20
20.865833500000001
 11
30.311616500000003
 21
21.038579500000001
  0
LINE
  8
_0-2____C_ä___1
  6
CONTINUOUS
 62
    7
 10
30.311616500000003
 20
21.038579500000001
 11
30.186631500000001
 21
21.2947825
  0
LINE
  8
_0-2____C_ä___1
  6
CONTINUOUS
 62
    7
 10
30.186631500000001
 20
21.2947825
 11
30.140800500000001
 21
21.608500499999998
  0
LINE
  8
_0-2____C_ä___1
  6
CONTINUOUS
 62
    7
 10
30.140800500000001
 20
21.608500499999998
 11
30.167432500000004
 21
21.850047500000002
  0
LINE
  8
_0-2____C_ä___1
  6
CONTINUOUS
 62
    7
 10
30.167432500000004
 20
21.850047500000002
 11
30.241911500000001
 21
22.062344499999998
  0
LINE
  8
_0-2____C_ä___1
  6
CONTINUOUS
 62
    7
 10
30.241911500000001
 20
22.062344499999998
 11
30.356119500000002
 21
22.234149500000001
  0
LINE
  8
_0-2____C_ä___1
  6
CONTINUOUS
 62
    7
 10
31.298905500000004
 20
21.744584500000002
 11
31.303468500000005
 21
21.6999785
  0
LINE
  8
_0-2____C_ä___1
  6
CONTINUOUS
 62
    7
 10
31.303468500000005
 20
21.6999785
 11
31.306240500000001
 21
21.654576500000005
  0
LINE
  8
_0-2____C_ä___1
  6
CONTINUOUS
 62
    7
 10
31.306240500000001
 20
21.654576500000005
 11
31.307174499999999
 21
21.608500499999998
  0
LINE
  8
_0-2____C_ä___1
  6
CONTINUOUS
 62
    7
 10
31.307174499999999
 20
21.608500499999998
 11
31.268202500000001
 21
21.3182665
  0
LINE
  8
_0-2____C_ä___1
  6
CONTINUOUS
 62
    7
 10
31.268202500000001
 20
21.3182665
 11
31.161040500000002
 21
21.074876500000002
  0
LINE
  8
_0-2____C_ä___1
  6
CONTINUOUS
 62
    7
 10
31.161040500000002
 20
21.074876500000002
 11
31.000317500000001
 21
20.898533499999999
  0
LINE
  8
_0-2____C_ä___1
  6
CONTINUOUS
 62
    7
 10
30.8378455
 20
22.156464499999998
 11
30.968285500000004
 21
22.044425500000003
  0
LINE
  8
_0-2____C_ä___1
  6
CONTINUOUS
 62
    7
 10
30.968285500000004
 20
22.044425500000003
 11
31.056419500000001
 21
21.876431499999999
  0
LINE
  8
_0-2____C_ä___1
  6
CONTINUOUS
 62
    7
 10
31.056419500000001
 20
21.876431499999999
 11
31.088787500000002
 21
21.669894499999998
  0
LINE
  8
_0-2____C_ä___1
  6
CONTINUOUS
 62
    7
 10
31.088787500000002
 20
21.669894499999998
 11
31.033782500000001
 21
21.404599500000003
  0
LINE
  8
_0-2____C_ä___1
  6
CONTINUOUS
 62
    7
 10
31.033782500000001
 20
21.404599500000003
 11
30.889267500000003
 21
21.216013500000003
  0
LINE
  8
_0-2____C_ä___1
  6
CONTINUOUS
 62
    7
 10
30.889267500000003
 20
21.216013500000003
 11
30.685988500000004
 21
21.144240499999999
  0
LINE
  8
_0-2____C_ä___1
  6
CONTINUOUS
 62
    7
 10
30.685988500000004
 20
21.144240499999999
 11
30.588288500000001
 21
21.1599325
  0
LINE
  8
_0-2____C_ä___1
  6
CONTINUOUS
 62
    7
 10
30.588288500000001
 20
21.1599325
 11
30.499339500000005
 21
21.204363499999999
  0
LINE
  8
_0-2____C_ä___1
  6
CONTINUOUS
 62
    7
 10
30.499339500000005
 20
21.204363499999999
 11
30.421919500000001
 21
21.273569500000001
  0
LINE
  8
_0-2____C_ä___1
  6
CONTINUOUS
 62
    7
 10
30.421919500000001
 20
21.273569500000001
 11
30.508162499999997
 21
21.160913499999999
  0
LINE
  8
_0-2____C_ä___1
  6
CONTINUOUS
 62
    7
 10
30.508162499999997
 20
21.160913499999999
 11
30.6155215
 21
21.0872575
  0
LINE
  8
_0-2____C_ä___1
  6
CONTINUOUS
 62
    7
 10
30.6155215
 20
21.0872575
 11
30.738213500000001
 21
21.060868500000002
  0
LINE
  8
_0-2____C_ä___1
  6
CONTINUOUS
 62
    7
 10
30.738213500000001
 20
21.060868500000002
 11
30.941502500000002
 21
21.136885500000002
  0
LINE
  8
_0-2____C_ä___1
  6
CONTINUOUS
 62
    7
 10
30.941502500000002
 20
21.136885500000002
 11
31.085993500000001
 21
21.336620499999999
  0
LINE
  8
_0-2____C_ä___1
  6
CONTINUOUS
 62
    7
 10
31.085993500000001
 20
21.336620499999999
 11
31.140980500000001
 21
21.6175985
  0
LINE
  8
_0-2____C_ä___1
  6
CONTINUOUS
 62
    7
 10
31.140980500000001
 20
21.6175985
 11
31.101097499999998
 21
21.859140499999999
  0
LINE
  8
_0-2____C_ä___1
  6
CONTINUOUS
 62
    7
 10
31.101097499999998
 20
21.859140499999999
 11
30.993851500000002
 21
22.047211500000003
  0
LINE
  8
_0-2____C_ä___1
  6
CONTINUOUS
 62
    7
 10
30.993851500000002
 20
22.047211500000003
 11
30.8378455
 21
22.156464499999998
  0
LINE
  8
_0-2____C_ä___1
  6
CONTINUOUS
 62
    7
 10
30.685988500000004
 20
21.144240499999999
 11
30.889267500000003
 21
21.216013500000003
  0
LINE
  8
_0-2____C_ä___1
  6
CONTINUOUS
 62
    7
 10
30.889267500000003
 20
21.216013500000003
 11
31.033782500000001
 21
21.404599500000003
  0
LINE
  8
_0-2____C_ä___1
  6
CONTINUOUS
 62
    7
 10
31.033782500000001
 20
21.404599500000003
 11
31.088787500000002
 21
21.669894499999998
  0
LINE
  8
_0-2____C_ä___1
  6
CONTINUOUS
 62
    7
 10
31.088787500000002
 20
21.669894499999998
 11
31.056419500000001
 21
21.876431499999999
  0
LINE
  8
_0-2____C_ä___1
  6
CONTINUOUS
 62
    7
 10
31.056419500000001
 20
21.876431499999999
 11
30.968285500000004
 21
22.044425500000003
  0
LINE
  8
_0-2____C_ä___1
  6
CONTINUOUS
 62
    7
 10
30.968285500000004
 20
22.044425500000003
 11
30.8378455
 21
22.156464499999998
  0
LINE
  8
_0-2____C_ä___1
  6
CONTINUOUS
 62
    7
 10
30.8378455
 20
22.156464499999998
 11
30.805462500000001
 21
22.166106499999998
  0
LINE
  8
_0-2____C_ä___1
  6
CONTINUOUS
 62
    7
 10
30.805462500000001
 20
22.166106499999998
 11
30.772252500000004
 21
22.172211500000003
  0
LINE
  8
_0-2____C_ä___1
  6
CONTINUOUS
 62
    7
 10
30.772252500000004
 20
22.172211500000003
 11
30.738213500000001
 21
22.174343499999999
  0
LINE
  8
_0-2____C_ä___1
  6
CONTINUOUS
 62
    7
 10
30.738213500000001
 20
22.174343499999999
 11
30.534902500000001
 21
22.098307500000004
  0
LINE
  8
_0-2____C_ä___1
  6
CONTINUOUS
 62
    7
 10
30.534902500000001
 20
22.098307500000004
 11
30.390403500000005
 21
21.898549500000001
  0
LINE
  8
_0-2____C_ä___1
  6
CONTINUOUS
 62
    7
 10
30.390403500000005
 20
21.898549500000001
 11
30.335414500000002
 21
21.6175985
  0
LINE
  8
_0-2____C_ä___1
  6
CONTINUOUS
 62
    7
 10
30.335414500000002
 20
21.6175985
 11
30.345830500000002
 21
21.4916415
  0
LINE
  8
_0-2____C_ä___1
  6
CONTINUOUS
 62
    7
 10
30.345830500000002
 20
21.4916415
 11
30.3754685
 21
21.375913499999999
  0
LINE
  8
_0-2____C_ä___1
  6
CONTINUOUS
 62
    7
 10
30.3754685
 20
21.375913499999999
 11
30.421919500000001
 21
21.273569500000001
  0
LINE
  8
_0-2____C_ä___1
  6
CONTINUOUS
 62
    7
 10
30.421919500000001
 20
21.273569500000001
 11
30.499339500000005
 21
21.204363499999999
  0
LINE
  8
_0-2____C_ä___1
  6
CONTINUOUS
 62
    7
 10
30.499339500000005
 20
21.204363499999999
 11
30.588288500000001
 21
21.1599325
  0
LINE
  8
_0-2____C_ä___1
  6
CONTINUOUS
 62
    7
 10
30.588288500000001
 20
21.1599325
 11
30.685988500000004
 21
21.144240499999999
  0
LINE
  8
_0-2____C_ä___1
  6
CONTINUOUS
 62
    7
 10
30.540498500000002
 20
22.102824500000001
 11
30.580528500000003
 21
22.118889499999998
  0
LINE
  8
_0-2____C_ä___1
  6
CONTINUOUS
 62
    7
 10
30.580528500000003
 20
22.118889499999998
 11
30.622393500000001
 21
22.128856499999998
  0
LINE
  8
_0-2____C_ä___1
  6
CONTINUOUS
 62
    7
 10
30.622393500000001
 20
22.128856499999998
 11
30.665865500000002
 21
22.132277500000001
  0
LINE
  8
_0-2____C_ä___1
  6
CONTINUOUS
 62
    7
 10
30.665865500000002
 20
22.132277500000001
 11
30.846510500000001
 21
22.068489499999998
  0
LINE
  8
_0-2____C_ä___1
  6
CONTINUOUS
 62
    7
 10
30.846510500000001
 20
22.068489499999998
 11
30.974933499999999
 21
21.900861499999998
  0
LINE
  8
_0-2____C_ä___1
  6
CONTINUOUS
 62
    7
 10
30.974933499999999
 20
21.900861499999998
 11
31.023812499999998
 21
21.665001500000002
  0
LINE
  8
_0-2____C_ä___1
  6
CONTINUOUS
 62
    7
 10
31.023812499999998
 20
21.665001500000002
 11
30.974933499999999
 21
21.429261499999999
  0
LINE
  8
_0-2____C_ä___1
  6
CONTINUOUS
 62
    7
 10
30.974933499999999
 20
21.429261499999999
 11
30.846510500000001
 21
21.261711500000001
  0
LINE
  8
_0-2____C_ä___1
  6
CONTINUOUS
 62
    7
 10
30.846510500000001
 20
21.261711500000001
 11
30.665865500000002
 21
21.197951500000002
  0
LINE
  8
_0-2____C_ä___1
  6
CONTINUOUS
 62
    7
 10
30.665865500000002
 20
21.197951500000002
 11
30.5442915
 21
21.225565500000002
  0
LINE
  8
_0-2____C_ä___1
  6
CONTINUOUS
 62
    7
 10
30.5442915
 20
21.225565500000002
 11
30.4405915
 21
21.301961500000001
  0
LINE
  8
_0-2____C_ä___1
  6
CONTINUOUS
 62
    7
 10
30.4405915
 20
21.301961500000001
 11
30.362148500000004
 21
21.417471500000001
  0
LINE
  8
_0-2____C_ä___1
  6
CONTINUOUS
 62
    7
 10
30.555968500000002
 20
22.1172915
 11
30.577178500000002
 21
22.121183500000001
  0
LINE
  8
_0-2____C_ä___1
  6
CONTINUOUS
 62
    7
 10
30.577178500000002
 20
22.121183500000001
 11
30.598734500000003
 21
22.123501500000003
  0
LINE
  8
_0-2____C_ä___1
  6
CONTINUOUS
 62
    7
 10
30.598734500000003
 20
22.123501500000003
 11
30.620565499999998
 21
22.1242695
  0
LINE
  8
_0-2____C_ä___1
  6
CONTINUOUS
 62
    7
 10
30.620565499999998
 20
22.1242695
 11
30.801296500000003
 21
22.065097500000004
  0
LINE
  8
_0-2____C_ä___1
  6
CONTINUOUS
 62
    7
 10
30.801296500000003
 20
22.065097500000004
 11
30.929738500000003
 21
21.909591500000001
  0
LINE
  8
_0-2____C_ä___1
  6
CONTINUOUS
 62
    7
 10
30.929738500000003
 20
21.909591500000001
 11
30.978614499999999
 21
21.690772499999998
  0
LINE
  8
_0-2____C_ä___1
  6
CONTINUOUS
 62
    7
 10
30.978614499999999
 20
21.690772499999998
 11
30.929738500000003
 21
21.471995499999998
  0
LINE
  8
_0-2____C_ä___1
  6
CONTINUOUS
 62
    7
 10
30.929738500000003
 20
21.471995499999998
 11
30.801296500000003
 21
21.316530499999999
  0
LINE
  8
_0-2____C_ä___1
  6
CONTINUOUS
 62
    7
 10
30.801296500000003
 20
21.316530499999999
 11
30.620565499999998
 21
21.257376499999999
  0
LINE
  8
_0-2____C_ä___1
  6
CONTINUOUS
 62
    7
 10
30.620565499999998
 20
21.257376499999999
 11
30.5294475
 21
21.271545500000002
  0
LINE
  8
_0-2____C_ä___1
  6
CONTINUOUS
 62
    7
 10
30.5294475
 20
21.271545500000002
 11
30.446959499999998
 21
21.3116515
  0
LINE
  8
_0-2____C_ä___1
  6
CONTINUOUS
 62
    7
 10
30.446959499999998
 20
21.3116515
 11
30.376100500000003
 21
21.374097500000001
  0
LINE
  8
_0-2____C_ä___1
  6
CONTINUOUS
 62
    7
 10
30.375306500000001
 20
21.858962500000004
 11
30.408955500000005
 21
21.8588345
  0
LINE
  8
_0-2____C_ä___1
  6
CONTINUOUS
 62
    7
 10
30.408955500000005
 20
21.8588345
 11
30.478853500000003
 21
21.837912500000002
  0
LINE
  8
_0-2____C_ä___1
  6
CONTINUOUS
 62
    7
 10
30.478853500000003
 20
21.837912500000002
 11
30.538431500000002
 21
21.7653915
  0
LINE
  8
_0-2____C_ä___1
  6
CONTINUOUS
 62
    7
 10
30.538431500000002
 20
21.7653915
 11
30.562157500000001
 21
21.748044499999999
  0
LINE
  8
_0-2____C_ä___1
  6
CONTINUOUS
 62
    7
 10
30.562157500000001
 20
21.748044499999999
 11
30.585882499999997
 21
21.7080965
  0
LINE
  8
_0-2____C_ä___1
  6
CONTINUOUS
 62
    7
 10
30.585882499999997
 20
21.7080965
 11
30.538431500000002
 21
21.6636925
  0
LINE
  8
_0-2____C_ä___1
  6
CONTINUOUS
 62
    7
 10
30.538431500000002
 20
21.6636925
 11
30.5163975
 21
21.6471485
  0
LINE
  8
_0-2____C_ä___1
  6
CONTINUOUS
 62
    7
 10
30.5163975
 20
21.6471485
 11
30.449248499999999
 21
21.620361500000001
  0
LINE
  8
_0-2____C_ä___1
  6
CONTINUOUS
 62
    7
 10
30.449248499999999
 20
21.620361500000001
 11
30.335414500000002
 21
21.6175985
  0
LINE
  8
_0-2____C_ä___1
  6
CONTINUOUS
 62
    7
 10
30.3569095
 20
21.796708499999998
 11
30.382865500000005
 21
21.797908500000002
  0
LINE
  8
_0-2____C_ä___1
  6
CONTINUOUS
 62
    7
 10
30.382865500000005
 20
21.797908500000002
 11
30.431068499999999
 21
21.785367500000003
  0
LINE
  8
_0-2____C_ä___1
  6
CONTINUOUS
 62
    7
 10
30.431068499999999
 20
21.785367500000003
 11
30.457024500000003
 21
21.734869500000002
  0
LINE
  8
_0-2____C_ä___1
  6
CONTINUOUS
 62
    7
 10
30.457024500000003
 20
21.734869500000002
 11
30.426004500000001
 21
21.684554500000004
  0
LINE
  8
_0-2____C_ä___1
  6
CONTINUOUS
 62
    7
 10
30.426004500000001
 20
21.684554500000004
 11
30.368396500000003
 21
21.672320499999998
  0
LINE
  8
_0-2____C_ä___1
  6
CONTINUOUS
 62
    7
 10
30.368396500000003
 20
21.672320499999998
 11
30.337376500000001
 21
21.673683499999999
  0
LINE
  8
_0-2____C_ä___1
  6
CONTINUOUS
 62
    7
 10
30.497230500000001
 20
21.888797499999999
 11
30.7681185
 21
22.0293545
  0
LINE
  8
_0-2____C_ä___1
  6
CONTINUOUS
 62
    7
 10
30.539500499999999
 20
21.860476500000004
 11
30.877120500000004
 21
21.923796499999998
  0
LINE
  8
_0-2____C_ä___1
  6
CONTINUOUS
 62
    7
 10
30.581668500000003
 20
21.8111785
 11
30.936894500000001
 21
21.804183500000001
  0
LINE
  8
_0-2____C_ä___1
  6
CONTINUOUS
 62
    7
 10
30.940510500000002
 20
21.730389500000001
 11
30.602820500000004
 21
21.769113500000003
  0
LINE
  8
_0-2____C_ä___1
  6
CONTINUOUS
 62
    7
 10
30.947471500000002
 20
21.665001500000002
 11
30.677373500000002
 21
21.709236500000003
  0
LINE
  8
_0-2____C_ä___1
  6
CONTINUOUS
 62
    7
 10
30.609781499999997
 20
22.075039500000003
 11
30.472631500000002
 21
21.916839499999998
  0
LINE
  8
_0-2____C_ä___1
  6
CONTINUOUS
 62
    7
 10
30.416373499999999
 20
21.579220499999998
 11
30.571162500000003
 21
21.2907245
  0
LINE
  8
_0-2____C_ä___1
  6
CONTINUOUS
 62
    7
 10
30.4630185
 20
21.579220499999998
 11
30.715787500000001
 21
21.326486500000001
  0
LINE
  8
_0-2____C_ä___1
  6
CONTINUOUS
 62
    7
 10
30.6555325
 20
21.301198500000002
 11
30.532370500000003
 21
21.456089500000004
  0
LINE
  8
_0-2____C_ä___1
  6
CONTINUOUS
 62
    7
 10
30.884147500000001
 20
21.463050499999998
 11
30.5640295
 21
21.607262500000004
  0
LINE
  8
_0-2____C_ä___1
  6
CONTINUOUS
 62
    7
 10
30.785687500000002
 20
21.3575625
 11
30.560586499999999
 21
21.533365500000002
  0
LINE
  8
_0-2____C_ä___1
  6
CONTINUOUS
 62
    7
 10
30.841948500000001
 20
21.410270499999999
 11
30.532370500000003
 21
21.5897255
  0
LINE
  8
_0-2____C_ä___1
  6
CONTINUOUS
 62
    7
 10
30.472631500000002
 20
21.339923499999998
 11
30.388225500000001
 21
21.568537499999998
  0
LINE
  8
_0-2____C_ä___1
  6
CONTINUOUS
 62
    7
 10
30.936894500000001
 20
21.614289499999998
 11
30.676614499999999
 21
21.665001500000002
  0
LINE
  8
_0-2____C_ä___1
  6
CONTINUOUS
 62
    7
 10
30.908849499999999
 20
21.540428500000004
 11
30.623871500000003
 21
21.6249015
  0
LINE
  8
_0-2____C_ä___1
  6
CONTINUOUS
 62
    7
 10
31.293635500000001
 20
21.7415865
 11
31.283131500000003
 21
21.715711499999998
  0
LINE
  8
_0-2____C_ä___1
  6
CONTINUOUS
 62
    7
 10
31.283131500000003
 20
21.715711499999998
 11
31.265483500000002
 21
21.697975499999998
  0
LINE
  8
_0-2____C_ä___1
  6
CONTINUOUS
 62
    7
 10
31.265483500000002
 20
21.697975499999998
 11
31.242990500000005
 21
21.691393500000004
  0
LINE
  8
_0-2____C_ä___1
  6
CONTINUOUS
 62
    7
 10
31.242990500000005
 20
21.691393500000004
 11
31.216438499999999
 21
21.7007665
  0
LINE
  8
_0-2____C_ä___1
  6
CONTINUOUS
 62
    7
 10
31.216438499999999
 20
21.7007665
 11
31.197587499999997
 21
21.7254045
  0
LINE
  8
_0-2____C_ä___1
  6
CONTINUOUS
 62
    7
 10
31.197587499999997
 20
21.7254045
 11
31.190419500000004
 21
21.7600865
  0
LINE
  8
_0-2____C_ä___1
  6
CONTINUOUS
 62
    7
 10
31.190419500000004
 20
21.7600865
 11
31.197587499999997
 21
21.794835500000001
  0
LINE
  8
_0-2____C_ä___1
  6
CONTINUOUS
 62
    7
 10
31.197587499999997
 20
21.794835500000001
 11
31.216438499999999
 21
21.819526499999998
  0
LINE
  8
_0-2____C_ä___1
  6
CONTINUOUS
 62
    7
 10
31.216438499999999
 20
21.819526499999998
 11
31.242990500000005
 21
21.828920499999999
  0
LINE
  8
_0-2____C_ä___1
  6
CONTINUOUS
 62
    7
 10
31.242990500000005
 20
21.828920499999999
 11
31.256954500000003
 21
21.826441500000001
  0
LINE
  8
_0-2____C_ä___1
  6
CONTINUOUS
 62
    7
 10
31.256954500000003
 20
21.826441500000001
 11
31.269531499999999
 21
21.819468499999999
  0
LINE
  8
_0-2____C_ä___1
  6
CONTINUOUS
 62
    7
 10
31.269531499999999
 20
21.819468499999999
 11
31.280162500000003
 21
21.808698499999998
  0
LINE
  8
_0-2____C_ä___1
  6
CONTINUOUS
 62
    7
 10
30.6210135
 20
20.933744500000003
 11
30.612592500000002
 21
20.9008295
  0
LINE
  8
_0-2____C_ä___1
  6
CONTINUOUS
 62
    7
 10
30.612592500000002
 20
20.9008295
 11
30.590482500000004
 21
20.877453500000001
  0
LINE
  8
_0-2____C_ä___1
  6
CONTINUOUS
 62
    7
 10
30.590482500000004
 20
20.877453500000001
 11
30.559414500000003
 21
20.868561500000002
  0
LINE
  8
_0-2____C_ä___1
  6
CONTINUOUS
 62
    7
 10
30.559414500000003
 20
20.868561500000002
 11
30.528316500000003
 21
20.877453500000001
  0
LINE
  8
_0-2____C_ä___1
  6
CONTINUOUS
 62
    7
 10
30.528316500000003
 20
20.877453500000001
 11
30.506221499999999
 21
20.9008295
  0
LINE
  8
_0-2____C_ä___1
  6
CONTINUOUS
 62
    7
 10
30.506221499999999
 20
20.9008295
 11
30.497816499999999
 21
20.933744500000003
  0
LINE
  8
_0-2____C_ä___1
  6
CONTINUOUS
 62
    7
 10
30.497816499999999
 20
20.933744500000003
 11
30.506221499999999
 21
20.966580499999999
  0
LINE
  8
_0-2____C_ä___1
  6
CONTINUOUS
 62
    7
 10
30.506221499999999
 20
20.966580499999999
 11
30.528316500000003
 21
20.989953499999999
  0
LINE
  8
_0-2____C_ä___1
  6
CONTINUOUS
 62
    7
 10
30.528316500000003
 20
20.989953499999999
 11
30.559414500000003
 21
20.9988575
  0
LINE
  8
_0-2____C_ä___1
  6
CONTINUOUS
 62
    7
 10
30.559414500000003
 20
20.9988575
 11
30.590482500000004
 21
20.989953499999999
  0
LINE
  8
_0-2____C_ä___1
  6
CONTINUOUS
 62
    7
 10
30.590482500000004
 20
20.989953499999999
 11
30.612592500000002
 21
20.966580499999999
  0
LINE
  8
_0-2____C_ä___1
  6
CONTINUOUS
 62
    7
 10
30.612592500000002
 20
20.966580499999999
 11
30.6210135
 21
20.933744500000003
  0
LINE
  8
_0-2____C_ä___1
  6
CONTINUOUS
 62
    7
 10
30.559414500000003
 20
20.868561500000002
 11
30.543605500000002
 21
20.879469499999999
  0
LINE
  8
_0-2____C_ä___1
  6
CONTINUOUS
 62
    7
 10
30.543605500000002
 20
20.879469499999999
 11
30.520491499999999
 21
20.911997500000002
  0
LINE
  8
_0-2____C_ä___1
  6
CONTINUOUS
 62
    7
 10
30.520491499999999
 20
20.911997500000002
 11
30.526546500000002
 21
20.965854500000003
  0
LINE
  8
_0-2____C_ä___1
  6
CONTINUOUS
 62
    7
 10
30.6017875
 20
20.980805500000002
 11
30.571162500000003
 21
20.907286500000001
  0
LINE
  8
_0-2____C_ä___1
  6
CONTINUOUS
 62
    7
 10
30.559414500000003
 20
20.953038500000002
 11
30.600478500000005
 21
20.9119715
  0
LINE
  8
_0-2____C_ä___1
  6
CONTINUOUS
 62
    7
 10
30.505464500000002
 20
22.154862500000004
 11
30.497043500000004
 21
22.122003500000002
  0
LINE
  8
_0-2____C_ä___1
  6
CONTINUOUS
 62
    7
 10
30.497043500000004
 20
22.122003500000002
 11
30.474933499999999
 21
22.098661499999999
  0
LINE
  8
_0-2____C_ä___1
  6
CONTINUOUS
 62
    7
 10
30.474933499999999
 20
22.098661499999999
 11
30.443865500000001
 21
22.089782499999998
  0
LINE
  8
_0-2____C_ä___1
  6
CONTINUOUS
 62
    7
 10
30.443865500000001
 20
22.089782499999998
 11
30.412831499999999
 21
22.098661499999999
  0
LINE
  8
_0-2____C_ä___1
  6
CONTINUOUS
 62
    7
 10
30.412831499999999
 20
22.098661499999999
 11
30.390746500000002
 21
22.122003500000002
  0
LINE
  8
_0-2____C_ä___1
  6
CONTINUOUS
 62
    7
 10
30.390746500000002
 20
22.122003500000002
 11
30.382334500000002
 21
22.154862500000004
  0
LINE
  8
_0-2____C_ä___1
  6
CONTINUOUS
 62
    7
 10
30.382334500000002
 20
22.154862500000004
 11
30.390746500000002
 21
22.187731499999998
  0
LINE
  8
_0-2____C_ä___1
  6
CONTINUOUS
 62
    7
 10
30.390746500000002
 20
22.187731499999998
 11
30.412831499999999
 21
22.211077500000002
  0
LINE
  8
_0-2____C_ä___1
  6
CONTINUOUS
 62
    7
 10
30.412831499999999
 20
22.211077500000002
 11
30.443865500000001
 21
22.2199575
  0
LINE
  8
_0-2____C_ä___1
  6
CONTINUOUS
 62
    7
 10
30.443865500000001
 20
22.2199575
 11
30.474933499999999
 21
22.211077500000002
  0
LINE
  8
_0-2____C_ä___1
  6
CONTINUOUS
 62
    7
 10
30.474933499999999
 20
22.211077500000002
 11
30.497043500000004
 21
22.187731499999998
  0
LINE
  8
_0-2____C_ä___1
  6
CONTINUOUS
 62
    7
 10
30.497043500000004
 20
22.187731499999998
 11
30.505464500000002
 21
22.154862500000004
  0
LINE
  8
_0-2____C_ä___1
  6
CONTINUOUS
 62
    7
 10
30.443865500000001
 20
22.089782499999998
 11
30.428051499999999
 21
22.100673499999999
  0
LINE
  8
_0-2____C_ä___1
  6
CONTINUOUS
 62
    7
 10
30.428051499999999
 20
22.100673499999999
 11
30.404948500000003
 21
22.133181500000003
  0
LINE
  8
_0-2____C_ä___1
  6
CONTINUOUS
 62
    7
 10
30.404948500000003
 20
22.133181500000003
 11
30.411068499999999
 21
22.187057499999998
  0
LINE
  8
_0-2____C_ä___1
  6
CONTINUOUS
 62
    7
 10
30.486206500000005
 20
22.2019555
 11
30.455542500000004
 21
22.128489500000001
  0
LINE
  8
_0-2____C_ä___1
  6
CONTINUOUS
 62
    7
 10
30.484897500000002
 20
22.133174499999999
 11
30.443865500000001
 21
22.174170500000002
  0
LINE
  8
_0-2____C_ä___1
  6
CONTINUOUS
 62
    7
 10
31.261525500000001
 20
21.740623499999998
 11
31.2205285
 21
21.781654500000002
  0
LINE
  8
_0-2____C_ä___1
  6
CONTINUOUS
 62
    7
 10
31.242990500000005
 20
21.691393500000004
 11
31.2257575
 21
21.703241500000004
  0
LINE
  8
_0-2____C_ä___1
  6
CONTINUOUS
 62
    7
 10
31.2257575
 20
21.703241500000004
 11
31.202644499999998
 21
21.743553500000004
  0
LINE
  8
_0-2____C_ä___1
  6
CONTINUOUS
 62
    7
 10
31.202644499999998
 20
21.743553500000004
 11
31.216531499999999
 21
21.8194795
  0
LINE
  8
_0-2____C_ä___1
  6
CONTINUOUS
 62
    7
 10
31.216531499999999
 20
21.8194795
 11
31.234315500000005
 21
21.819132499999998
  0
LINE
  8
_0-2____C_ä___1
  6
CONTINUOUS
 62
    7
 10
31.234315500000005
 20
21.819132499999998
 11
31.268214499999999
 21
21.810640500000002
  0
LINE
  8
_0-2____C_ä___1
  6
CONTINUOUS
 62
    7
 10
31.268214499999999
 20
21.810640500000002
 11
31.289052499999997
 21
21.782826499999999
  0
LINE
  8
_0-2____C_ä___1
  6
CONTINUOUS
 62
    7
 10
31.289052499999997
 20
21.782826499999999
 11
31.285853499999998
 21
21.740792499999998
  0
LINE
  8
_0-2____C_ä___1
  6
CONTINUOUS
 62
    7
 10
31.285853499999998
 20
21.740792499999998
 11
31.269364500000002
 21
21.7059335
  0
LINE
  8
_0-2____C_ä___1
  6
CONTINUOUS
 62
    7
 10
31.269364500000002
 20
21.7059335
 11
31.242990500000005
 21
21.691393500000004
  0
TEXT
  8
_0-2____C_ä___1
 62
    7
 10
30.334618573695636
 20
18.124801313100477
 40
0.4233339999999999
 41
1
 50
0
  1
YW1415
  0
ENDSEC
  0
EOF
