  0
SECTION
  2
HEADER
  9
$ACADVER
  1
AC1009
  9
$INSBASE
 10
0
 20
0
 30
0
  9
$EXTMIN
 10
0
 20
0
  9
$EXTMAX
 10
59.400000000000006
 20
42
  9
$LIMMIN
 10
0
 20
0
  9
$LIMMAX
 10
59.400000000000006
 20
42
  9
$LTSCALE
 40
0.1
  0
ENDSEC
  0
SECTION
  2
TABLES
  0
TABLE
  2
LTYPE
 70
     9
  0
LTYPE
  2
CONTINUOUS
 70
    64
  3
実線
 72
    65
 73
     0
 40
0.0
  0
LTYPE
  2
DASHED1
 70
    64
  3
--  --  --  --  --  --  --  --  
 72
    65
 73
     2
 40
2.5
 49
1.25
 49
-1.25
  0
LTYPE
  2
DASHED2
 70
    64
  3
----    ----    ----    ----    
 72
    65
 73
     2
 40
5.0
 49
2.5
 49
-2.5
  0
LTYPE
  2
DASHED3
 70
    64
  3
------  ------  ------  ------  
 72
    65
 73
     2
 40
5.0
 49
3.75
 49
-1.25
  0
LTYPE
  2
CENTER1
 70
    64
  3
----- - ----- - ----- - ----- - 
 72
    65
 73
     4
 40
10.0
 49
6.25
 49
-1.25
 49
1.25
 49
-1.25
  0
LTYPE
  2
CENTER2
 70
    64
  3
----------  --  ----------  --  
 72
    65
 73
     4
 40
20.0
 49
12.5
 49
-2.5
 49
2.5
 49
-2.5
  0
LTYPE
  2
PHANTOM1
 70
    64
  3
--- - - --- - - --- - - --- - - 
 72
    65
 73
     6
 40
10.0
 49
3.25
 49
-1.25
 49
1.25
 49
-1.25
 49
1.25
 49
-1.25
  0
LTYPE
  2
PHANTOM2
 70
    64
  3
--------  -  -  --------  -  -  
 72
    65
 73
     6
 40
20.0
 49
10.0
 49
-2.5
 49
1.25
 49
-2.5
 49
1.25
 49
-2.5
  0
LTYPE
  2
DOT
 70
    64
  3
-   -   -   -   -   -   -   -   
 72
    65
 73
     2
 40
2.5
 49
0.625
 49
-1.875
  0
LTYPE
  2
DUMMY
 70
    64
  3
ダミー
 72
    65
 73
     0
 40
0.0
  0
LTYPE
  2
RAND1
 70
    64
  3
ランダム線1
 72
    65
 73
     4
 40
10.0
 49
1.0
 49
-2.0
 49
3.0
 49
-4.0
  0
LTYPE
  2
RAND2
 70
    64
  3
ランダム線2
 72
    65
 73
     4
 40
14.0
 49
2.0
 49
-3.0
 49
4.0
 49
-5.0
  0
LTYPE
  2
RAND3
 70
    64
  3
ランダム線3
 72
    65
 73
     4
 40
18.0
 49
3.0
 49
-4.0
 49
5.0
 49
-6.0
  0
LTYPE
  2
RAND4
 70
    64
  3
ランダム線4
 72
    65
 73
     4
 40
22.0
 49
4.0
 49
-5.0
 49
6.0
 49
-7.0
  0
LTYPE
  2
RAND5
 70
    64
  3
ランダム線5
 72
    65
 73
     4
 40
26.0
 49
5.0
 49
-6.0
 49
7.0
 49
-8.0
  0
LTYPE
  2
LONG1
 70
    64
  3
----------  --  ----------  --  
 72
    65
 73
     4
 40
40.0
 49
32.5
 49
-2.5
 49
2.5
 49
-2.5
  0
LTYPE
  2
LONG2
 70
    64
  3
--------  -  -  --------  -  -  
 72
    65
 73
     6
 40
40.0
 49
30.0
 49
-2.5
 49
1.25
 49
-2.5
 49
1.25
 49
-2.5
  0
LTYPE
  2
LONG3
 70
    64
  3
+++++++++++++++..+++++++++++++++
 72
    65
 73
     2
 40
40.0
 49
37.5
 49
-2.5
  0
LTYPE
  2
LONG4
 70
    64
  3
+++++++++++++++..+++++++++++++++
 72
    65
 73
     2
 40
80.0
 49
75.0
 49
-5.0
  0
LTYPE
  2
LONG5
 70
    64
  3
----------  --  ----------  --  
 72
    65
 73
     4
 40
60.0
 49
37.5
 49
-7.5
 49
7.5
 49
-7.5
  0
LTYPE
  2
dashed
 70
   64
  3
-------   -------------   ------
 72
   65
 73
    2
 40
7.5
 49
6
 49
-1.5
  0
LTYPE
  2
dashed_spaced
 70
   64
  3
----        --------        ----
 72
   65
 73
    2
 40
12
 49
6
 49
-6
  0
LTYPE
  2
long_dashed_dotted
 70
   64
  3
------------- --- --------------
 72
   65
 73
    4
 40
15.25
 49
12
 49
-1.5
 49
0.25
 49
-1.5
  0
LTYPE
  2
long_dashed_double-dotted
 70
   64
  3
----------- --- --- ------------
 72
   65
 73
    6
 40
17
 49
12
 49
-1.5
 49
0.25
 49
-1.5
 49
0.25
 49
-1.5
  0
LTYPE
  2
long_dashed_triplicate-dotted
 70
   64
  3
--------- --- --- --- ----------
 72
   65
 73
    8
 40
18.75
 49
12
 49
-1.5
 49
0.25
 49
-1.5
 49
0.25
 49
-1.5
 49
0.25
 49
-1.5
  0
LTYPE
  2
dotted
 70
   64
  3
   -       -       -       -    
 72
   65
 73
    2
 40
1.75
 49
0.25
 49
-1.5
  0
LTYPE
  2
chain
 70
   64
  3
-------------- -- --------------
 72
   65
 73
    4
 40
18.5
 49
12
 49
-1.5
 49
3.5
 49
-1.5
  0
LTYPE
  2
chain_double_dash
 70
   64
  3
------------ -- -- -------------
 72
   65
 73
    6
 40
23.5
 49
12
 49
-1.5
 49
3.5
 49
-1.5
 49
3.5
 49
-1.5
  0
LTYPE
  2
dashed_dotted
 70
   64
  3
-----------     -     ----------
 72
   65
 73
    4
 40
9.25
 49
6
 49
-1.5
 49
0.25
 49
-1.5
  0
LTYPE
  2
double-dashed_dotted
 70
   64
  3
------   -----------   -   -----
 72
   65
 73
    6
 40
16.75
 49
6
 49
-1.5
 49
6
 49
-1.5
 49
0.25
 49
-1.5
  0
LTYPE
  2
dashed_double-dotted
 70
   64
  3
---------    -    -    ---------
 72
   65
 73
    6
 40
11
 49
6
 49
-1.5
 49
0.25
 49
-1.5
 49
0.25
 49
-1.5
  0
LTYPE
  2
double-dashed_double-dotted
 70
   64
  3
-----   ---------   -   -   ----
 72
   65
 73
    8
 40
18.5
 49
6
 49
-1.5
 49
6
 49
-1.5
 49
0.25
 49
-1.5
 49
0.25
 49
-1.5
  0
LTYPE
  2
dashed_triplicate-dotted
 70
   64
  3
-------    -    -    -    ------
 72
   65
 73
    8
 40
12.75
 49
6
 49
-1.5
 49
0.25
 49
-1.5
 49
0.25
 49
-1.5
 49
0.25
 49
-1.5
  0
LTYPE
  2
double-dashed_triplicate-dotted
 70
   64
  3
-----  ---------  -  -  -  -----
 72
   65
 73
   10
 40
20.25
 49
6
 49
-1.5
 49
6
 49
-1.5
 49
0.25
 49
-1.5
 49
0.25
 49
-1.5
 49
0.25
 49
-1.5
  0
LTYPE
  2
undefined
 70
   64
  3
--------------------------------
 72
   65
 73
    0
 40
0
  0
ENDTAB
  0
TABLE
  2
STYLE
  5
3
100
AcDbSymbolTable
 70
     1
  0
STYLE
  5
10
100
AcDbSymbolTableRecord
100
AcDbTextStyleTableRecord
  2
STANDARD
 70
     0
 40
0.0
 41
1.0
 50
0.0
 71
     0
 42
0.2
  3
txt
  4
bigfont.shx
  0
STYLE
  5
26
100
AcDbSymbolTableRecord
100
AcDbTextStyleTableRecord
  2
TATEGAKI
 70
    68
 40
0.0
 41
1.0
 50
0.0
 71
     0
 42
1.0
  3
txt
  4
bigfont.shx
  0
ENDTAB
  0
TABLE
  2
LAYER
 70
    2
  0
LAYER
  2
_0-2____C_____1
 70
   64
 62
    7
  6
CONTINUOUS
  0
LAYER
  2
ADD_LINE
 70
   64
 62
    7
  6
CONTINUOUS
  0
ENDTAB
  0
ENDSEC
  0
SECTION
  2
BLOCKS
  0
ENDSEC
  0
SECTION
  2
ENTITIES
  0
LINE
  8
_0-2____C_____1
  6
CONTINUOUS
 62
    7
 10
28.7400485
 20
25.564259499999999
 11
28.656357500000002
 21
25.562338499999999
  0
LINE
  8
_0-2____C_____1
  6
CONTINUOUS
 62
    7
 10
28.656357500000002
 20
25.562338499999999
 11
28.469284500000004
 21
25.515648500000001
  0
LINE
  8
_0-2____C_____1
  6
CONTINUOUS
 62
    7
 10
28.469284500000004
 20
25.515648500000001
 11
28.274828500000002
 21
25.362802500000001
  0
LINE
  8
_0-2____C_____1
  6
CONTINUOUS
 62
    7
 10
28.274828500000002
 20
25.362802500000001
 11
28.168987500000004
 21
25.042412500000001
  0
LINE
  8
_0-2____C_____1
  6
CONTINUOUS
 62
    7
 10
28.168987500000004
 20
25.042412500000001
 11
28.163293500000005
 21
24.915899500000002
  0
LINE
  8
_0-2____C_____1
  6
CONTINUOUS
 62
    7
 10
28.163293500000005
 20
24.915899500000002
 11
28.159225500000005
 21
24.730438500000002
  0
LINE
  8
_0-2____C_____1
  6
CONTINUOUS
 62
    7
 10
28.159225500000005
 20
24.730438500000002
 11
28.156588500000005
 21
24.494053500000003
  0
LINE
  8
_0-2____C_____1
  6
CONTINUOUS
 62
    7
 10
28.156588500000005
 20
24.494053500000003
 11
28.1551835
 21
24.214768500000002
  0
LINE
  8
_0-2____C_____1
  6
CONTINUOUS
 62
    7
 10
28.1551835
 20
24.214768500000002
 11
28.154812500000006
 21
23.900606499999999
  0
LINE
  8
_0-2____C_____1
  6
CONTINUOUS
 62
    7
 10
28.154812500000006
 20
23.900606499999999
 11
28.155279500000006
 21
23.5595915
  0
LINE
  8
_0-2____C_____1
  6
CONTINUOUS
 62
    7
 10
28.155279500000006
 20
23.5595915
 11
28.156385499999999
 21
23.199747500000001
  0
LINE
  8
_0-2____C_____1
  6
CONTINUOUS
 62
    7
 10
28.156385499999999
 20
23.199747500000001
 11
28.157932500000005
 21
22.829098500000001
  0
LINE
  8
_0-2____C_____1
  6
CONTINUOUS
 62
    7
 10
28.157932500000005
 20
22.829098500000001
 11
28.159723500000002
 21
22.455668500000002
  0
LINE
  8
_0-2____C_____1
  6
CONTINUOUS
 62
    7
 10
28.159723500000002
 20
22.455668500000002
 11
28.161561500000005
 21
22.087480500000002
  0
LINE
  8
_0-2____C_____1
  6
CONTINUOUS
 62
    7
 10
28.161561500000005
 20
22.087480500000002
 11
28.163247500000001
 21
21.7325585
  0
LINE
  8
_0-2____C_____1
  6
CONTINUOUS
 62
    7
 10
28.163247500000001
 20
21.7325585
 11
28.164584500000004
 21
21.398926500000002
  0
LINE
  8
_0-2____C_____1
  6
CONTINUOUS
 62
    7
 10
28.164584500000004
 20
21.398926500000002
 11
28.1653755
 21
21.094609500000001
  0
LINE
  8
_0-2____C_____1
  6
CONTINUOUS
 62
    7
 10
28.1653755
 20
21.094609500000001
 11
28.1654205
 21
20.8276295
  0
LINE
  8
_0-2____C_____1
  6
CONTINUOUS
 62
    7
 10
28.1654205
 20
20.8276295
 11
28.164524500000006
 21
20.6060105
  0
LINE
  8
_0-2____C_____1
  6
CONTINUOUS
 62
    7
 10
28.164524500000006
 20
20.6060105
 11
28.162488500000002
 21
20.437777499999999
  0
LINE
  8
_0-2____C_____1
  6
CONTINUOUS
 62
    7
 10
28.162488500000002
 20
20.437777499999999
 11
28.159115500000002
 21
20.3309535
  0
LINE
  8
_0-2____C_____1
  6
CONTINUOUS
 62
    7
 10
28.159115500000002
 20
20.3309535
 11
28.154206500000004
 21
20.293562500000004
  0
LINE
  8
_0-2____C_____1
  6
CONTINUOUS
 62
    7
 10
28.154206500000004
 20
20.293562500000004
 11
28.208900500000006
 21
20.252162500000001
  0
LINE
  8
_0-2____C_____1
  6
CONTINUOUS
 62
    7
 10
28.208900500000006
 20
20.252162500000001
 11
28.417842500000003
 21
20.179038500000001
  0
LINE
  8
_0-2____C_____1
  6
CONTINUOUS
 62
    7
 10
28.417842500000003
 20
20.179038500000001
 11
28.744972500000003
 21
20.150799500000002
  0
LINE
  8
_0-2____C_____1
  6
CONTINUOUS
 62
    7
 10
28.744972500000003
 20
20.150799500000002
 11
29.0547805
 21
20.181782500000001
  0
LINE
  8
_0-2____C_____1
  6
CONTINUOUS
 62
    7
 10
29.0547805
 20
20.181782500000001
 11
29.240953500000003
 21
20.228084500000001
  0
LINE
  8
_0-2____C_____1
  6
CONTINUOUS
 62
    7
 10
29.240953500000003
 20
20.228084500000001
 11
29.3111405
 21
20.278749500000004
  0
LINE
  8
_0-2____C_____1
  6
CONTINUOUS
 62
    7
 10
29.3111405
 20
20.278749500000004
 11
29.313512500000002
 21
20.3287285
  0
LINE
  8
_0-2____C_____1
  6
CONTINUOUS
 62
    7
 10
29.313512500000002
 20
20.3287285
 11
29.315707500000002
 21
20.455771500000001
  0
LINE
  8
_0-2____C_____1
  6
CONTINUOUS
 62
    7
 10
29.315707500000002
 20
20.455771500000001
 11
29.317729500000002
 21
20.650188499999999
  0
LINE
  8
_0-2____C_____1
  6
CONTINUOUS
 62
    7
 10
29.317729500000002
 20
20.650188499999999
 11
29.319584500000005
 21
20.902289500000002
  0
LINE
  8
_0-2____C_____1
  6
CONTINUOUS
 62
    7
 10
29.319584500000005
 20
20.902289500000002
 11
29.321275500000002
 21
21.202385500000002
  0
LINE
  8
_0-2____C_____1
  6
CONTINUOUS
 62
    7
 10
29.321275500000002
 20
21.202385500000002
 11
29.322810500000003
 21
21.540784500000001
  0
LINE
  8
_0-2____C_____1
  6
CONTINUOUS
 62
    7
 10
29.322810500000003
 20
21.540784500000001
 11
29.324192500000006
 21
21.907797500000001
  0
LINE
  8
_0-2____C_____1
  6
CONTINUOUS
 62
    7
 10
29.324192500000006
 20
21.907797500000001
 11
29.325427500000004
 21
22.293733500000002
  0
LINE
  8
_0-2____C_____1
  6
CONTINUOUS
 62
    7
 10
29.325427500000004
 20
22.293733500000002
 11
29.326520500000004
 21
22.688903499999999
  0
LINE
  8
_0-2____C_____1
  6
CONTINUOUS
 62
    7
 10
29.326520500000004
 20
22.688903499999999
 11
29.327476500000003
 21
23.083617500000003
  0
LINE
  8
_0-2____C_____1
  6
CONTINUOUS
 62
    7
 10
29.327476500000003
 20
23.083617500000003
 11
29.328300500000001
 21
23.468184500000003
  0
LINE
  8
_0-2____C_____1
  6
CONTINUOUS
 62
    7
 10
29.328300500000001
 20
23.468184500000003
 11
29.328998500000001
 21
23.832915499999999
  0
LINE
  8
_0-2____C_____1
  6
CONTINUOUS
 62
    7
 10
29.328998500000001
 20
23.832915499999999
 11
29.329574500000003
 21
24.168119500000003
  0
LINE
  8
_0-2____C_____1
  6
CONTINUOUS
 62
    7
 10
29.329574500000003
 20
24.168119500000003
 11
29.3300345
 21
24.464105500000002
  0
LINE
  8
_0-2____C_____1
  6
CONTINUOUS
 62
    7
 10
29.3300345
 20
24.464105500000002
 11
29.3303835
 21
24.711185499999999
  0
LINE
  8
_0-2____C_____1
  6
CONTINUOUS
 62
    7
 10
29.3303835
 20
24.711185499999999
 11
29.330626500000001
 21
24.899668500000001
  0
LINE
  8
_0-2____C_____1
  6
CONTINUOUS
 62
    7
 10
29.330626500000001
 20
24.899668500000001
 11
29.330768500000001
 21
25.019864500000001
  0
LINE
  8
_0-2____C_____1
  6
CONTINUOUS
 62
    7
 10
29.330768500000001
 20
25.019864500000001
 11
29.330814500000002
 21
25.0620835
  0
LINE
  8
_0-2____C_____1
  6
CONTINUOUS
 62
    7
 10
29.330814500000002
 20
25.0620835
 11
29.316738500000003
 21
25.144705500000001
  0
LINE
  8
_0-2____C_____1
  6
CONTINUOUS
 62
    7
 10
29.316738500000003
 20
25.144705500000001
 11
29.244049500000003
 21
25.324256500000001
  0
LINE
  8
_0-2____C_____1
  6
CONTINUOUS
 62
    7
 10
29.244049500000003
 20
25.324256500000001
 11
29.067050500000001
 21
25.498265500000002
  0
LINE
  8
_0-2____C_____1
  6
CONTINUOUS
 62
    7
 10
29.067050500000001
 20
25.498265500000002
 11
28.7400485
 21
25.564259499999999
  0
LINE
  8
_0-2____C_____1
  6
CONTINUOUS
 62
    7
 10
28.1640245
 20
24.983328499999999
 11
28.231960500000003
 21
24.958718500000003
  0
LINE
  8
_0-2____C_____1
  6
CONTINUOUS
 62
    7
 10
28.231960500000003
 20
24.958718500000003
 11
28.4145045
 21
24.909299500000003
  0
LINE
  8
_0-2____C_____1
  6
CONTINUOUS
 62
    7
 10
28.4145045
 20
24.909299500000003
 11
28.679759500000003
 21
24.871696499999999
  0
LINE
  8
_0-2____C_____1
  6
CONTINUOUS
 62
    7
 10
28.679759500000003
 20
24.871696499999999
 11
28.995828500000005
 21
24.8825295
  0
LINE
  8
_0-2____C_____1
  6
CONTINUOUS
 62
    7
 10
28.995828500000005
 20
24.8825295
 11
29.330814500000002
 21
24.9784215
  0
LINE
  8
_0-2____C_____1
  6
CONTINUOUS
 62
    7
 10
28.1640245
 20
24.875068499999998
 11
28.238612500000006
 21
24.817441500000001
  0
LINE
  8
_0-2____C_____1
  6
CONTINUOUS
 62
    7
 10
28.238612500000006
 20
24.817441500000001
 11
28.393064500000005
 21
24.676665499999999
  0
LINE
  8
_0-2____C_____1
  6
CONTINUOUS
 62
    7
 10
28.393064500000005
 20
24.676665499999999
 11
28.523417500000001
 21
24.500893500000004
  0
LINE
  8
_0-2____C_____1
  6
CONTINUOUS
 62
    7
 10
28.523417500000001
 20
24.500893500000004
 11
28.665095500000003
 21
24.399514499999999
  0
LINE
  8
_0-2____C_____1
  6
CONTINUOUS
 62
    7
 10
28.665095500000003
 20
24.399514499999999
 11
28.852722500000006
 21
24.418467500000002
  0
LINE
  8
_0-2____C_____1
  6
CONTINUOUS
 62
    7
 10
28.852722500000006
 20
24.418467500000002
 11
28.981239500000004
 21
24.5107465
  0
LINE
  8
_0-2____C_____1
  6
CONTINUOUS
 62
    7
 10
28.981239500000004
 20
24.5107465
 11
29.078248500000001
 21
24.635816500000001
  0
LINE
  8
_0-2____C_____1
  6
CONTINUOUS
 62
    7
 10
29.078248500000001
 20
24.635816500000001
 11
29.209182500000004
 21
24.766374500000001
  0
LINE
  8
_0-2____C_____1
  6
CONTINUOUS
 62
    7
 10
29.209182500000004
 20
24.766374500000001
 11
29.3259215
 21
24.875068499999998
  0
LINE
  8
_0-2____C_____1
  6
CONTINUOUS
 62
    7
 10
28.764608500000005
 20
24.313755499999999
 11
28.597058500000003
 21
24.307926500000001
  0
LINE
  8
_0-2____C_____1
  6
CONTINUOUS
 62
    7
 10
28.597058500000003
 20
24.307926500000001
 11
28.297148500000006
 21
24.319630500000002
  0
LINE
  8
_0-2____C_____1
  6
CONTINUOUS
 62
    7
 10
28.297148500000006
 20
24.319630500000002
 11
28.168987500000004
 21
24.392650500000002
  0
LINE
  8
_0-2____C_____1
  6
CONTINUOUS
 62
    7
 10
28.168987500000004
 20
24.392650500000002
 11
28.296966500000003
 21
24.463356500000003
  0
LINE
  8
_0-2____C_____1
  6
CONTINUOUS
 62
    7
 10
28.296966500000003
 20
24.463356500000003
 11
28.464341500000003
 21
24.479384500000002
  0
LINE
  8
_0-2____C_____1
  6
CONTINUOUS
 62
    7
 10
28.464341500000003
 20
24.479384500000002
 11
28.523417500000001
 21
24.500893500000004
  0
LINE
  8
_0-2____C_____1
  6
CONTINUOUS
 62
    7
 10
28.738704500000001
 20
24.313755499999999
 11
28.899352499999999
 21
24.307926500000001
  0
LINE
  8
_0-2____C_____1
  6
CONTINUOUS
 62
    7
 10
28.899352499999999
 20
24.307926500000001
 11
29.186918500000004
 21
24.319630500000002
  0
LINE
  8
_0-2____C_____1
  6
CONTINUOUS
 62
    7
 10
29.186918500000004
 20
24.319630500000002
 11
29.309831500000001
 21
24.392650500000002
  0
LINE
  8
_0-2____C_____1
  6
CONTINUOUS
 62
    7
 10
29.309831500000001
 20
24.392650500000002
 11
29.187100500000003
 21
24.463356500000003
  0
LINE
  8
_0-2____C_____1
  6
CONTINUOUS
 62
    7
 10
29.187100500000003
 20
24.463356500000003
 11
29.026595500000003
 21
24.479384500000002
  0
LINE
  8
_0-2____C_____1
  6
CONTINUOUS
 62
    7
 10
29.026595500000003
 20
24.479384500000002
 11
28.969939500000006
 21
24.500893500000004
  0
LINE
  8
_0-2____C_____1
  6
CONTINUOUS
 62
    7
 10
28.159099500000004
 20
24.274378500000001
 11
28.262331500000005
 21
24.242237500000002
  0
LINE
  8
_0-2____C_____1
  6
CONTINUOUS
 62
    7
 10
28.262331500000005
 20
24.242237500000002
 11
28.5307955
 21
24.187036500000001
  0
LINE
  8
_0-2____C_____1
  6
CONTINUOUS
 62
    7
 10
28.5307955
 20
24.187036500000001
 11
28.902644500000005
 21
24.170606500000002
  0
LINE
  8
_0-2____C_____1
  6
CONTINUOUS
 62
    7
 10
28.902644500000005
 20
24.170606500000002
 11
29.316033500000003
 21
24.254777500000003
  0
LINE
  8
_0-2____C_____1
  6
CONTINUOUS
 62
    7
 10
28.159201500000002
 20
20.2763715
 11
28.159201500000002
 21
20.122926500000002
  0
LINE
  8
_0-2____C_____1
  6
CONTINUOUS
 62
    7
 10
28.159201500000002
 20
20.122926500000002
 11
28.214733500000001
 21
20.092871500000001
  0
LINE
  8
_0-2____C_____1
  6
CONTINUOUS
 62
    7
 10
28.214733500000001
 20
20.092871500000001
 11
28.371874500000004
 21
20.031378500000002
  0
LINE
  8
_0-2____C_____1
  6
CONTINUOUS
 62
    7
 10
28.371874500000004
 20
20.031378500000002
 11
28.6164475
 21
19.981457500000001
  0
LINE
  8
_0-2____C_____1
  6
CONTINUOUS
 62
    7
 10
28.6164475
 20
19.981457500000001
 11
28.934274500000004
 21
19.986118500000003
  0
LINE
  8
_0-2____C_____1
  6
CONTINUOUS
 62
    7
 10
28.934274500000004
 20
19.986118500000003
 11
29.311175500000004
 21
20.088372500000002
  0
LINE
  8
_0-2____C_____1
  6
CONTINUOUS
 62
    7
 10
29.311175500000004
 20
20.088372500000002
 11
29.316135500000001
 21
20.271376500000002
  0
LINE
  8
_0-2____C_____1
  6
CONTINUOUS
 62
    7
 10
28.4852825
 20
19.670033500000002
 11
28.765885500000003
 21
16.929420499999999
  0
LINE
  8
_0-2____C_____1
  6
CONTINUOUS
 62
    7
 10
28.765885500000003
 20
16.929420499999999
 11
28.839746500000004
 21
16.790754500000002
  0
LINE
  8
_0-2____C_____1
  6
CONTINUOUS
 62
    7
 10
28.839746500000004
 20
16.790754500000002
 11
28.884017500000006
 21
16.929420499999999
  0
LINE
  8
_0-2____C_____1
  6
CONTINUOUS
 62
    7
 10
28.884017500000006
 20
16.929420499999999
 11
29.080973499999999
 21
19.674993499999999
  0
LINE
  8
_0-2____C_____1
  6
CONTINUOUS
 62
    7
 10
28.810222500000005
 20
19.635616500000001
 11
28.8446395
 21
16.795647500000001
  0
LINE
  8
_0-2____C_____1
  6
CONTINUOUS
 62
    7
 10
29.927779500000003
 20
17.315928500000002
 11
29.914410500000002
 21
17.3202395
  0
LINE
  8
_0-2____C_____1
  6
CONTINUOUS
 62
    7
 10
29.914410500000002
 20
17.3202395
 11
29.876007500000004
 21
17.3390995
  0
LINE
  8
_0-2____C_____1
  6
CONTINUOUS
 62
    7
 10
29.876007500000004
 20
17.3390995
 11
29.8151215
 21
17.381401499999999
  0
LINE
  8
_0-2____C_____1
  6
CONTINUOUS
 62
    7
 10
29.8151215
 20
17.381401499999999
 11
29.734305500000005
 21
17.456035499999999
  0
LINE
  8
_0-2____C_____1
  6
CONTINUOUS
 62
    7
 10
29.734305500000005
 20
17.456035499999999
 11
29.636112500000003
 21
17.571893499999998
  0
LINE
  8
_0-2____C_____1
  6
CONTINUOUS
 62
    7
 10
29.636112500000003
 20
17.571893499999998
 11
29.523094500000003
 21
17.737868500000001
  0
LINE
  8
_0-2____C_____1
  6
CONTINUOUS
 62
    7
 10
29.523094500000003
 20
17.737868500000001
 11
29.397803500000006
 21
17.962851499999999
  0
LINE
  8
_0-2____C_____1
  6
CONTINUOUS
 62
    7
 10
29.397803500000006
 20
17.962851499999999
 11
29.262793500000004
 21
18.255732500000001
  0
LINE
  8
_0-2____C_____1
  6
CONTINUOUS
 62
    7
 10
29.262793500000004
 20
18.255732500000001
 11
29.120615500000003
 21
18.625405499999999
  0
LINE
  8
_0-2____C_____1
  6
CONTINUOUS
 62
    7
 10
29.120615500000003
 20
18.625405499999999
 11
28.973823500000005
 21
19.080761500000001
  0
LINE
  8
_0-2____C_____1
  6
CONTINUOUS
 62
    7
 10
28.973823500000005
 20
19.080761500000001
 11
28.824968500000001
 21
19.630691500000001
  0
LINE
  8
_0-2____C_____1
  6
CONTINUOUS
 62
    7
 10
28.8200085
 20
19.319734499999999
 11
28.829541500000005
 21
19.271340500000001
  0
LINE
  8
_0-2____C_____1
  6
CONTINUOUS
 62
    7
 10
28.829541500000005
 20
19.271340500000001
 11
28.857297500000005
 21
19.136893499999999
  0
LINE
  8
_0-2____C_____1
  6
CONTINUOUS
 62
    7
 10
28.857297500000005
 20
19.136893499999999
 11
28.902011500000004
 21
18.9324975
  0
LINE
  8
_0-2____C_____1
  6
CONTINUOUS
 62
    7
 10
28.902011500000004
 20
18.9324975
 11
28.962417500000004
 21
18.674253499999999
  0
LINE
  8
_0-2____C_____1
  6
CONTINUOUS
 62
    7
 10
28.962417500000004
 20
18.674253499999999
 11
29.037251500000004
 21
18.378265500000001
  0
LINE
  8
_0-2____C_____1
  6
CONTINUOUS
 62
    7
 10
29.037251500000004
 20
18.378265500000001
 11
29.125248500000005
 21
18.060636499999998
  0
LINE
  8
_0-2____C_____1
  6
CONTINUOUS
 62
    7
 10
29.125248500000005
 20
18.060636499999998
 11
29.225143500000001
 21
17.737470500000001
  0
LINE
  8
_0-2____C_____1
  6
CONTINUOUS
 62
    7
 10
29.225143500000001
 20
17.737470500000001
 11
29.335670499999999
 21
17.424868499999999
  0
LINE
  8
_0-2____C_____1
  6
CONTINUOUS
 62
    7
 10
29.335670499999999
 20
17.424868499999999
 11
29.455565500000002
 21
17.138934500000001
  0
LINE
  8
_0-2____C_____1
  6
CONTINUOUS
 62
    7
 10
29.455565500000002
 20
17.138934500000001
 11
29.583563500000004
 21
16.895771500000002
  0
LINE
  8
_0-2____C_____1
  6
CONTINUOUS
 62
    7
 10
29.583563500000004
 20
16.895771500000002
 11
29.7183995
 21
16.711481500000001
  0
LINE
  8
_0-2____C_____1
  6
CONTINUOUS
 62
    7
 10
29.7183995
 20
16.711481500000001
 11
29.858807500000001
 21
16.602169499999999
  0
LINE
  8
_0-2____C_____1
  6
CONTINUOUS
 62
    7
 10
29.896738500000005
 20
17.4442235
 11
29.927676500000004
 21
17.386205499999999
  0
LINE
  8
_0-2____C_____1
  6
CONTINUOUS
 62
    7
 10
29.927676500000004
 20
17.386205499999999
 11
29.919958500000003
 21
17.331948499999999
  0
LINE
  8
_0-2____C_____1
  6
CONTINUOUS
 62
    7
 10
29.919958500000003
 20
17.331948499999999
 11
29.9238885
 21
17.2777545
  0
LINE
  8
_0-2____C_____1
  6
CONTINUOUS
 62
    7
 10
29.9238885
 20
17.2777545
 11
29.916102500000001
 21
17.268074500000001
  0
LINE
  8
_0-2____C_____1
  6
CONTINUOUS
 62
    7
 10
29.916102500000001
 20
17.268074500000001
 11
29.914137499999999
 21
17.1712685
  0
LINE
  8
_0-2____C_____1
  6
CONTINUOUS
 62
    7
 10
29.914137499999999
 20
17.1712685
 11
29.929673500000003
 21
17.167444499999998
  0
LINE
  8
_0-2____C_____1
  6
CONTINUOUS
 62
    7
 10
29.929673500000003
 20
17.167444499999998
 11
29.9567525
 21
17.167444499999998
  0
LINE
  8
_0-2____C_____1
  6
CONTINUOUS
 62
    7
 10
29.9567525
 20
17.167444499999998
 11
29.964503500000003
 21
17.186839500000001
  0
LINE
  8
_0-2____C_____1
  6
CONTINUOUS
 62
    7
 10
29.964503500000003
 20
17.186839500000001
 11
29.9548585
 21
17.208094499999998
  0
LINE
  8
_0-2____C_____1
  6
CONTINUOUS
 62
    7
 10
29.9548585
 20
17.208094499999998
 11
29.952893500000005
 21
17.239033500000001
  0
LINE
  8
_0-2____C_____1
  6
CONTINUOUS
 62
    7
 10
29.952893500000005
 20
17.239033500000001
 11
29.993547500000002
 21
17.308728500000001
  0
LINE
  8
_0-2____C_____1
  6
CONTINUOUS
 62
    7
 10
29.993547500000002
 20
17.308728500000001
 11
30.016767500000004
 21
17.306763499999999
  0
LINE
  8
_0-2____C_____1
  6
CONTINUOUS
 62
    7
 10
30.016767500000004
 20
17.306763499999999
 11
30.018661500000004
 21
17.208094499999998
  0
LINE
  8
_0-2____C_____1
  6
CONTINUOUS
 62
    7
 10
30.018661500000004
 20
17.208094499999998
 11
29.997438500000005
 21
17.206097499999998
  0
LINE
  8
_0-2____C_____1
  6
CONTINUOUS
 62
    7
 10
29.997438500000005
 20
17.206097499999998
 11
30.0109785
 21
17.175159500000003
  0
LINE
  8
_0-2____C_____1
  6
CONTINUOUS
 62
    7
 10
30.0109785
 20
17.175159500000003
 11
30.047702500000003
 21
17.198379499999998
  0
LINE
  8
_0-2____C_____1
  6
CONTINUOUS
 62
    7
 10
30.047702500000003
 20
17.198379499999998
 11
30.096107500000006
 21
17.213883500000001
  0
LINE
  8
_0-2____C_____1
  6
CONTINUOUS
 62
    7
 10
30.096107500000006
 20
17.213883500000001
 11
30.067098500000004
 21
17.2564645
  0
LINE
  8
_0-2____C_____1
  6
CONTINUOUS
 62
    7
 10
30.067098500000004
 20
17.2564645
 11
30.063242500000001
 21
17.2913295
  0
LINE
  8
_0-2____C_____1
  6
CONTINUOUS
 62
    7
 10
30.063242500000001
 20
17.2913295
 11
30.094213500000002
 21
17.2913295
  0
LINE
  8
_0-2____C_____1
  6
CONTINUOUS
 62
    7
 10
30.094213500000002
 20
17.2913295
 11
30.096107500000006
 21
17.240994499999999
  0
LINE
  8
_0-2____C_____1
  6
CONTINUOUS
 62
    7
 10
30.096107500000006
 20
17.240994499999999
 11
30.173588500000001
 21
17.233314500000002
  0
LINE
  8
_0-2____C_____1
  6
CONTINUOUS
 62
    7
 10
30.173588500000001
 20
17.233314500000002
 11
30.216168500000006
 21
17.2603905
  0
LINE
  8
_0-2____C_____1
  6
CONTINUOUS
 62
    7
 10
30.216168500000006
 20
17.2603905
 11
30.225817500000005
 21
17.3146165
  0
LINE
  8
_0-2____C_____1
  6
CONTINUOUS
 62
    7
 10
30.225817500000005
 20
17.3146165
 11
30.109647500000001
 21
17.4403285
  0
LINE
  8
_0-2____C_____1
  6
CONTINUOUS
 62
    7
 10
30.109647500000001
 20
17.4403285
 11
30.049702500000002
 21
17.4384345
  0
LINE
  8
_0-2____C_____1
  6
CONTINUOUS
 62
    7
 10
30.049702500000002
 20
17.4384345
 11
30.049702500000002
 21
17.461689500000002
  0
LINE
  8
_0-2____C_____1
  6
CONTINUOUS
 62
    7
 10
30.049702500000002
 20
17.461689500000002
 11
29.927676500000004
 21
17.461689500000002
  0
LINE
  8
_0-2____C_____1
  6
CONTINUOUS
 62
    7
 10
29.927676500000004
 20
17.461689500000002
 11
29.925817500000001
 21
17.4442235
  0
LINE
  8
_0-2____C_____1
  6
CONTINUOUS
 62
    7
 10
29.925817500000001
 20
17.4442235
 11
29.896738500000005
 21
17.4442235
  0
LINE
  8
_0-2____C_____1
  6
CONTINUOUS
 62
    7
 10
29.983832500000005
 20
17.270039499999999
 11
29.981937500000004
 21
17.246783499999999
  0
LINE
  8
_0-2____C_____1
  6
CONTINUOUS
 62
    7
 10
29.981937500000004
 20
17.246783499999999
 11
29.9930995
 21
17.247746500000002
  0
LINE
  8
_0-2____C_____1
  6
CONTINUOUS
 62
    7
 10
29.9930995
 20
17.247746500000002
 11
30.005122500000006
 21
17.248748500000001
  0
LINE
  8
_0-2____C_____1
  6
CONTINUOUS
 62
    7
 10
30.005122500000006
 20
17.248748500000001
 11
30.005122500000006
 21
17.264249500000002
  0
LINE
  8
_0-2____C_____1
  6
CONTINUOUS
 62
    7
 10
30.005122500000006
 20
17.264249500000002
 11
29.983832500000005
 21
17.270039499999999
  0
LINE
  8
_0-2____C_____1
  6
CONTINUOUS
 62
    7
 10
29.993547500000002
 20
17.2215995
 11
29.9915825
 21
17.243026499999999
  0
LINE
  8
_0-2____C_____1
  6
CONTINUOUS
 62
    7
 10
29.9915825
 20
17.243026499999999
 11
30.0825675
 21
17.2003795
  0
LINE
  8
_0-2____C_____1
  6
CONTINUOUS
 62
    7
 10
30.0825675
 20
17.2003795
 11
30.080638499999999
 21
17.155865500000001
  0
LINE
  8
_0-2____C_____1
  6
CONTINUOUS
 62
    7
 10
30.080638499999999
 20
17.155865500000001
 11
30.070922500000002
 21
17.148080499999999
  0
LINE
  8
_0-2____C_____1
  6
CONTINUOUS
 62
    7
 10
30.070922500000002
 20
17.148080499999999
 11
30.0747815
 21
17.122965499999999
  0
LINE
  8
_0-2____C_____1
  6
CONTINUOUS
 62
    7
 10
30.0747815
 20
17.122965499999999
 11
30.045843500000004
 21
17.126789500000001
  0
LINE
  8
_0-2____C_____1
  6
CONTINUOUS
 62
    7
 10
30.045843500000004
 20
17.126789500000001
 11
30.043846500000001
 21
17.062884499999999
  0
LINE
  8
_0-2____C_____1
  6
CONTINUOUS
 62
    7
 10
30.043846500000001
 20
17.062884499999999
 11
30.032201500000003
 21
17.062884499999999
  0
LINE
  8
_0-2____C_____1
  6
CONTINUOUS
 62
    7
 10
30.032201500000003
 20
17.062884499999999
 11
30.027343500000001
 21
17.0260575
  0
LINE
  8
_0-2____C_____1
  6
CONTINUOUS
 62
    7
 10
30.027343500000001
 20
17.0260575
 11
30.024482500000001
 21
17.004901499999999
  0
LINE
  8
_0-2____C_____1
  6
CONTINUOUS
 62
    7
 10
30.024482500000001
 20
17.004901499999999
 11
30.003227500000005
 21
17.004901499999999
  0
LINE
  8
_0-2____C_____1
  6
CONTINUOUS
 62
    7
 10
30.003227500000005
 20
17.004901499999999
 11
30.005122500000006
 21
17.122965499999999
  0
LINE
  8
_0-2____C_____1
  6
CONTINUOUS
 62
    7
 10
30.005122500000006
 20
17.122965499999999
 11
29.985828500000004
 21
17.128719499999999
  0
LINE
  8
_0-2____C_____1
  6
CONTINUOUS
 62
    7
 10
29.985828500000004
 20
17.128719499999999
 11
29.981937500000004
 21
17.1093595
  0
LINE
  8
_0-2____C_____1
  6
CONTINUOUS
 62
    7
 10
29.981937500000004
 20
17.1093595
 11
29.9567525
 21
17.1093595
  0
LINE
  8
_0-2____C_____1
  6
CONTINUOUS
 62
    7
 10
29.9567525
 20
17.1093595
 11
29.952893500000005
 21
17.0532705
  0
LINE
  8
_0-2____C_____1
  6
CONTINUOUS
 62
    7
 10
29.952893500000005
 20
17.0532705
 11
29.9412515
 21
17.0590595
  0
LINE
  8
_0-2____C_____1
  6
CONTINUOUS
 62
    7
 10
29.9412515
 20
17.0590595
 11
29.947072500000004
 21
17.126789500000001
  0
LINE
  8
_0-2____C_____1
  6
CONTINUOUS
 62
    7
 10
29.947072500000004
 20
17.126789500000001
 11
29.9567525
 21
17.153904499999999
  0
LINE
  8
_0-2____C_____1
  6
CONTINUOUS
 62
    7
 10
29.9567525
 20
17.153904499999999
 11
29.962577500000005
 21
17.1384355
  0
LINE
  8
_0-2____C_____1
  6
CONTINUOUS
 62
    7
 10
29.962577500000005
 20
17.1384355
 11
29.964503500000003
 21
17.1655145
  0
LINE
  8
_0-2____C_____1
  6
CONTINUOUS
 62
    7
 10
29.964503500000003
 20
17.1655145
 11
29.931603500000001
 21
17.161654500000001
  0
LINE
  8
_0-2____C_____1
  6
CONTINUOUS
 62
    7
 10
29.931603500000001
 20
17.161654500000001
 11
29.927676500000004
 21
17.113250499999999
  0
LINE
  8
_0-2____C_____1
  6
CONTINUOUS
 62
    7
 10
29.927676500000004
 20
17.113250499999999
 11
29.921923500000005
 21
17.111288500000001
  0
LINE
  8
_0-2____C_____1
  6
CONTINUOUS
 62
    7
 10
29.921923500000005
 20
17.111288500000001
 11
29.9238885
 21
17.0144795
  0
LINE
  8
_0-2____C_____1
  6
CONTINUOUS
 62
    7
 10
29.9238885
 20
17.0144795
 11
29.933532500000002
 21
17.030019500000002
  0
LINE
  8
_0-2____C_____1
  6
CONTINUOUS
 62
    7
 10
29.933532500000002
 20
17.030019500000002
 11
29.958647500000001
 21
17.031913499999998
  0
LINE
  8
_0-2____C_____1
  6
CONTINUOUS
 62
    7
 10
29.958647500000001
 20
17.031913499999998
 11
29.964503500000003
 21
17.091924500000001
  0
LINE
  8
_0-2____C_____1
  6
CONTINUOUS
 62
    7
 10
29.964503500000003
 20
17.091924500000001
 11
29.974151500000005
 21
17.086174499999998
  0
LINE
  8
_0-2____C_____1
  6
CONTINUOUS
 62
    7
 10
29.974151500000005
 20
17.086174499999998
 11
29.972222500000004
 21
17.030019500000002
  0
LINE
  8
_0-2____C_____1
  6
CONTINUOUS
 62
    7
 10
29.972222500000004
 20
17.030019500000002
 11
29.964055500000001
 21
17.019097499999997
  0
LINE
  8
_0-2____C_____1
  6
CONTINUOUS
 62
    7
 10
29.964055500000001
 20
17.019097499999997
 11
29.960612500000003
 21
17.0144795
  0
LINE
  8
_0-2____C_____1
  6
CONTINUOUS
 62
    7
 10
29.960612500000003
 20
17.0144795
 11
29.929673500000003
 21
17.008658499999999
  0
LINE
  8
_0-2____C_____1
  6
CONTINUOUS
 62
    7
 10
29.929673500000003
 20
17.008658499999999
 11
29.933532500000002
 21
16.9990135
  0
LINE
  8
_0-2____C_____1
  6
CONTINUOUS
 62
    7
 10
29.933532500000002
 20
16.9990135
 11
29.966433500000001
 21
16.995189500000002
  0
LINE
  8
_0-2____C_____1
  6
CONTINUOUS
 62
    7
 10
29.966433500000001
 20
16.995189500000002
 11
29.987758500000002
 21
17.016444500000002
  0
LINE
  8
_0-2____C_____1
  6
CONTINUOUS
 62
    7
 10
29.987758500000002
 20
17.016444500000002
 11
29.989652500000002
 21
16.997115500000003
  0
LINE
  8
_0-2____C_____1
  6
CONTINUOUS
 62
    7
 10
29.989652500000002
 20
16.997115500000003
 11
30.032201500000003
 21
17.000939499999998
  0
LINE
  8
_0-2____C_____1
  6
CONTINUOUS
 62
    7
 10
30.032201500000003
 20
17.000939499999998
 11
30.043846500000001
 21
17.0241945
  0
LINE
  8
_0-2____C_____1
  6
CONTINUOUS
 62
    7
 10
30.043846500000001
 20
17.0241945
 11
30.028306500000003
 21
17.068740500000001
  0
LINE
  8
_0-2____C_____1
  6
CONTINUOUS
 62
    7
 10
29.854122500000003
 20
16.609955500000002
 11
29.9238885
 21
16.611849500000002
  0
LINE
  8
_0-2____C_____1
  6
CONTINUOUS
 62
    7
 10
29.9238885
 20
16.611849500000002
 11
29.9393575
 21
16.650609499999998
  0
LINE
  8
_0-2____C_____1
  6
CONTINUOUS
 62
    7
 10
29.9393575
 20
16.650609499999998
 11
29.9567525
 21
16.652503500000002
  0
LINE
  8
_0-2____C_____1
  6
CONTINUOUS
 62
    7
 10
29.9567525
 20
16.652503500000002
 11
29.966433500000001
 21
16.646714499999998
  0
LINE
  8
_0-2____C_____1
  6
CONTINUOUS
 62
    7
 10
29.985828500000004
 20
16.546084500000003
 11
29.9915825
 21
16.5731635
  0
LINE
  8
_0-2____C_____1
  6
CONTINUOUS
 62
    7
 10
29.9915825
 20
16.5731635
 11
30.003227500000005
 21
16.6138145
  0
LINE
  8
_0-2____C_____1
  6
CONTINUOUS
 62
    7
 10
30.003227500000005
 20
16.6138145
 11
30.0019545
 21
16.6193955
  0
LINE
  8
_0-2____C_____1
  6
CONTINUOUS
 62
    7
 10
30.0019545
 20
16.6193955
 11
29.989652500000002
 21
16.671899500000002
  0
LINE
  8
_0-2____C_____1
  6
CONTINUOUS
 62
    7
 10
29.989652500000002
 20
16.671899500000002
 11
30.003227500000005
 21
16.671899500000002
  0
LINE
  8
_0-2____C_____1
  6
CONTINUOUS
 62
    7
 10
30.003227500000005
 20
16.671899500000002
 11
30.001231500000003
 21
16.656394500000001
  0
LINE
  8
_0-2____C_____1
  6
CONTINUOUS
 62
    7
 10
30.001231500000003
 20
16.656394500000001
 11
30.001231500000003
 21
16.6389645
  0
LINE
  8
_0-2____C_____1
  6
CONTINUOUS
 62
    7
 10
30.001231500000003
 20
16.6389645
 11
29.9954775
 21
16.625459500000002
  0
LINE
  8
_0-2____C_____1
  6
CONTINUOUS
 62
    7
 10
29.9954775
 20
16.625459500000002
 11
29.985828500000004
 21
16.615744500000002
  0
LINE
  8
_0-2____C_____1
  6
CONTINUOUS
 62
    7
 10
29.985828500000004
 20
16.615744500000002
 11
29.966433500000001
 21
16.586703499999999
  0
LINE
  8
_0-2____C_____1
  6
CONTINUOUS
 62
    7
 10
29.966433500000001
 20
16.586703499999999
 11
29.970052500000005
 21
16.608992499999999
  0
LINE
  8
_0-2____C_____1
  6
CONTINUOUS
 62
    7
 10
29.970052500000005
 20
16.608992499999999
 11
29.974151500000005
 21
16.635104500000001
  0
LINE
  8
_0-2____C_____1
  6
CONTINUOUS
 62
    7
 10
30.009017500000006
 20
16.6331755
 11
30.009327500000001
 21
16.633108500000002
  0
LINE
  8
_0-2____C_____1
  6
CONTINUOUS
 62
    7
 10
30.009327500000001
 20
16.633108500000002
 11
30.041952500000004
 21
16.631248499999998
  0
LINE
  8
_0-2____C_____1
  6
CONTINUOUS
 62
    7
 10
30.041952500000004
 20
16.631248499999998
 11
30.041952500000004
 21
16.623530499999998
  0
LINE
  8
_0-2____C_____1
  6
CONTINUOUS
 62
    7
 10
30.041952500000004
 20
16.623530499999998
 11
30.014767500000005
 21
16.623530499999998
  0
LINE
  8
_0-2____C_____1
  6
CONTINUOUS
 62
    7
 10
29.863806499999999
 20
16.606028500000001
 11
29.856122500000005
 21
16.567339499999999
  0
LINE
  8
_0-2____C_____1
  6
CONTINUOUS
 62
    7
 10
29.852263499999999
 20
16.538365500000001
 11
29.873518500000003
 21
16.511219499999999
  0
LINE
  8
_0-2____C_____1
  6
CONTINUOUS
 62
    7
 10
29.873518500000003
 20
16.511219499999999
 11
29.894776500000003
 21
16.507395500000001
  0
LINE
  8
_0-2____C_____1
  6
CONTINUOUS
 62
    7
 10
29.894776500000003
 20
16.507395500000001
 11
30.003227500000005
 21
16.511219499999999
  0
LINE
  8
_0-2____C_____1
  6
CONTINUOUS
 62
    7
 10
30.003227500000005
 20
16.511219499999999
 11
30.003227500000005
 21
16.499644499999999
  0
LINE
  8
_0-2____C_____1
  6
CONTINUOUS
 62
    7
 10
30.003227500000005
 20
16.499644499999999
 11
29.978043500000002
 21
16.499644499999999
  0
LINE
  8
_0-2____C_____1
  6
CONTINUOUS
 62
    7
 10
29.978043500000002
 20
16.499644499999999
 11
29.976081499999999
 21
16.484140500000002
  0
LINE
  8
_0-2____C_____1
  6
CONTINUOUS
 62
    7
 10
29.976081499999999
 20
16.484140500000002
 11
29.945107500000006
 21
16.480249499999999
  0
LINE
  8
_0-2____C_____1
  6
CONTINUOUS
 62
    7
 10
29.945107500000006
 20
16.480249499999999
 11
29.945107500000006
 21
16.495718500000002
  0
LINE
  8
_0-2____C_____1
  6
CONTINUOUS
 62
    7
 10
29.945107500000006
 20
16.495718500000002
 11
29.885128500000004
 21
16.5015745
  0
LINE
  8
_0-2____C_____1
  6
CONTINUOUS
 62
    7
 10
29.885128500000004
 20
16.5015745
 11
29.852263499999999
 21
16.538365500000001
  0
LINE
  8
_0-2____C_____1
  6
CONTINUOUS
 62
    7
 10
29.910277500000003
 20
16.476354499999999
 11
29.912278500000003
 21
16.462850499999998
  0
LINE
  8
_0-2____C_____1
  6
CONTINUOUS
 62
    7
 10
29.912278500000003
 20
16.462850499999998
 11
29.933532500000002
 21
16.457064500000001
  0
LINE
  8
_0-2____C_____1
  6
CONTINUOUS
 62
    7
 10
29.933532500000002
 20
16.457064500000001
 11
29.9354625
 21
16.476354499999999
  0
LINE
  8
_0-2____C_____1
  6
CONTINUOUS
 62
    7
 10
29.9354625
 20
16.476354499999999
 11
29.910277500000003
 21
16.476354499999999
  0
LINE
  8
_0-2____C_____1
  6
CONTINUOUS
 62
    7
 10
29.980008500000004
 20
16.480249499999999
 11
29.964503500000003
 21
16.4530995
  0
LINE
  8
_0-2____C_____1
  6
CONTINUOUS
 62
    7
 10
29.964503500000003
 20
16.4530995
 11
29.972222500000004
 21
16.4415595
  0
LINE
  8
_0-2____C_____1
  6
CONTINUOUS
 62
    7
 10
29.972222500000004
 20
16.4415595
 11
29.9915825
 21
16.447349500000001
  0
LINE
  8
_0-2____C_____1
  6
CONTINUOUS
 62
    7
 10
29.9915825
 20
16.447349500000001
 11
30.001231500000003
 21
16.464779500000002
  0
LINE
  8
_0-2____C_____1
  6
CONTINUOUS
 62
    7
 10
30.001231500000003
 20
16.464779500000002
 11
30.001231500000003
 21
16.484140500000002
  0
LINE
  8
_0-2____C_____1
  6
CONTINUOUS
 62
    7
 10
30.001231500000003
 20
16.484140500000002
 11
29.980008500000004
 21
16.480249499999999
  0
LINE
  8
_0-2____C_____1
  6
CONTINUOUS
 62
    7
 10
30.0109785
 20
16.495718500000002
 11
30.016767500000004
 21
16.464779500000002
  0
LINE
  8
_0-2____C_____1
  6
CONTINUOUS
 62
    7
 10
30.016767500000004
 20
16.464779500000002
 11
30.026447500000003
 21
16.443524500000002
  0
LINE
  8
_0-2____C_____1
  6
CONTINUOUS
 62
    7
 10
30.026447500000003
 20
16.443524500000002
 11
30.036163500000004
 21
16.468639500000002
  0
LINE
  8
_0-2____C_____1
  6
CONTINUOUS
 62
    7
 10
30.036163500000004
 20
16.468639500000002
 11
30.051597500000003
 21
16.474424500000001
  0
LINE
  8
_0-2____C_____1
  6
CONTINUOUS
 62
    7
 10
30.051597500000003
 20
16.474424500000001
 11
30.069028500000002
 21
16.480249499999999
  0
LINE
  8
_0-2____C_____1
  6
CONTINUOUS
 62
    7
 10
30.069028500000002
 20
16.480249499999999
 11
30.084462500000001
 21
16.549908499999997
  0
LINE
  8
_0-2____C_____1
  6
CONTINUOUS
 62
    7
 10
30.084462500000001
 20
16.549908499999997
 11
30.057386500000003
 21
16.517008499999999
  0
LINE
  8
_0-2____C_____1
  6
CONTINUOUS
 62
    7
 10
30.057386500000003
 20
16.517008499999999
 11
30.045843500000004
 21
16.5015745
  0
LINE
  8
_0-2____C_____1
  6
CONTINUOUS
 62
    7
 10
30.045843500000004
 20
16.5015745
 11
30.036163500000004
 21
16.4918595
  0
LINE
  8
_0-2____C_____1
  6
CONTINUOUS
 62
    7
 10
30.036163500000004
 20
16.4918595
 11
30.0109785
 21
16.495718500000002
  0
LINE
  8
_0-2____C_____1
  6
CONTINUOUS
 62
    7
 10
30.049702500000002
 20
16.7299845
 11
30.049702500000002
 21
16.6971165
  0
LINE
  8
_0-2____C_____1
  6
CONTINUOUS
 62
    7
 10
30.049702500000002
 20
16.6971165
 11
30.105822500000006
 21
16.695154500000001
  0
LINE
  8
_0-2____C_____1
  6
CONTINUOUS
 62
    7
 10
30.105822500000006
 20
16.695154500000001
 11
30.107752500000004
 21
16.640960500000002
  0
LINE
  8
_0-2____C_____1
  6
CONTINUOUS
 62
    7
 10
30.107752500000004
 20
16.640960500000002
 11
30.115467500000001
 21
16.644820500000002
  0
LINE
  8
_0-2____C_____1
  6
CONTINUOUS
 62
    7
 10
30.115467500000001
 20
16.644820500000002
 11
30.115467500000001
 21
16.714550500000001
  0
LINE
  8
_0-2____C_____1
  6
CONTINUOUS
 62
    7
 10
30.115467500000001
 20
16.714550500000001
 11
30.065137500000006
 21
16.718339499999999
  0
LINE
  8
_0-2____C_____1
  6
CONTINUOUS
 62
    7
 10
30.065137500000006
 20
16.718339499999999
 11
30.059347500000001
 21
16.712550499999999
  0
LINE
  8
_0-2____C_____1
  6
CONTINUOUS
 62
    7
 10
30.059347500000001
 20
16.712550499999999
 11
30.049702500000002
 21
16.7299845
  0
LINE
  8
_0-2____C_____1
  6
CONTINUOUS
 62
    7
 10
30.059347500000001
 20
16.873230500000002
 11
30.055488500000003
 21
16.8015735
  0
LINE
  8
_0-2____C_____1
  6
CONTINUOUS
 62
    7
 10
30.055488500000003
 20
16.8015735
 11
30.067098500000004
 21
16.7861045
  0
LINE
  8
_0-2____C_____1
  6
CONTINUOUS
 62
    7
 10
30.067098500000004
 20
16.7861045
 11
30.076813500000004
 21
16.788034500000002
  0
LINE
  8
_0-2____C_____1
  6
CONTINUOUS
 62
    7
 10
30.076813500000004
 20
16.788034500000002
 11
30.0825675
 21
16.772564499999998
  0
LINE
  8
_0-2____C_____1
  6
CONTINUOUS
 62
    7
 10
30.0825675
 20
16.772564499999998
 11
30.094213500000002
 21
16.776459499999998
  0
LINE
  8
_0-2____C_____1
  6
CONTINUOUS
 62
    7
 10
30.094213500000002
 20
16.776459499999998
 11
30.100002500000006
 21
16.797714500000001
  0
LINE
  8
_0-2____C_____1
  6
CONTINUOUS
 62
    7
 10
30.100002500000006
 20
16.797714500000001
 11
30.109647500000001
 21
16.7957845
  0
LINE
  8
_0-2____C_____1
  6
CONTINUOUS
 62
    7
 10
30.109647500000001
 20
16.7957845
 11
30.107752500000004
 21
16.875124499999998
  0
LINE
  8
_0-2____C_____1
  6
CONTINUOUS
 62
    7
 10
30.107752500000004
 20
16.875124499999998
 11
30.059347500000001
 21
16.873230500000002
  0
LINE
  8
_0-2____C_____1
  6
CONTINUOUS
 62
    7
 10
30.130972500000002
 20
16.873230500000002
 11
30.1290075
 21
16.8557995
  0
LINE
  8
_0-2____C_____1
  6
CONTINUOUS
 62
    7
 10
30.1290075
 20
16.8557995
 11
30.121292499999999
 21
16.8557995
  0
LINE
  8
_0-2____C_____1
  6
CONTINUOUS
 62
    7
 10
30.121292499999999
 20
16.8557995
 11
30.113541500000004
 21
16.753204499999999
  0
LINE
  8
_0-2____C_____1
  6
CONTINUOUS
 62
    7
 10
30.113541500000004
 20
16.753204499999999
 11
30.115467500000001
 21
16.735770500000001
  0
LINE
  8
_0-2____C_____1
  6
CONTINUOUS
 62
    7
 10
30.115467500000001
 20
16.735770500000001
 11
30.132969500000002
 21
16.737699500000002
  0
LINE
  8
_0-2____C_____1
  6
CONTINUOUS
 62
    7
 10
30.132969500000002
 20
16.737699500000002
 11
30.1367935
 21
16.809289500000002
  0
LINE
  8
_0-2____C_____1
  6
CONTINUOUS
 62
    7
 10
30.1367935
 20
16.809289500000002
 11
30.144512500000005
 21
16.819004500000002
  0
LINE
  8
_0-2____C_____1
  6
CONTINUOUS
 62
    7
 10
30.144512500000005
 20
16.819004500000002
 11
30.144512500000005
 21
16.849943500000002
  0
LINE
  8
_0-2____C_____1
  6
CONTINUOUS
 62
    7
 10
30.144512500000005
 20
16.849943500000002
 11
30.171591500000002
 21
16.853869499999998
  0
LINE
  8
_0-2____C_____1
  6
CONTINUOUS
 62
    7
 10
30.171591500000002
 20
16.853869499999998
 11
30.173588500000001
 21
16.873230500000002
  0
LINE
  8
_0-2____C_____1
  6
CONTINUOUS
 62
    7
 10
30.173588500000001
 20
16.873230500000002
 11
30.130972500000002
 21
16.873230500000002
  0
LINE
  8
_0-2____C_____1
  6
CONTINUOUS
 62
    7
 10
30.1832335
 20
16.735770500000001
 11
30.1832335
 21
16.716409500000001
  0
LINE
  8
_0-2____C_____1
  6
CONTINUOUS
 62
    7
 10
30.1832335
 20
16.716409500000001
 11
30.160048500000006
 21
16.716409500000001
  0
LINE
  8
_0-2____C_____1
  6
CONTINUOUS
 62
    7
 10
30.160048500000006
 20
16.716409500000001
 11
30.154192500000001
 21
16.640960500000002
  0
LINE
  8
_0-2____C_____1
  6
CONTINUOUS
 62
    7
 10
30.154192500000001
 20
16.640960500000002
 11
30.146508499999999
 21
16.642823500000002
  0
LINE
  8
_0-2____C_____1
  6
CONTINUOUS
 62
    7
 10
30.146508499999999
 20
16.642823500000002
 11
30.146508499999999
 21
16.602204499999999
  0
LINE
  8
_0-2____C_____1
  6
CONTINUOUS
 62
    7
 10
30.146508499999999
 20
16.602204499999999
 11
30.132969500000002
 21
16.602204499999999
  0
LINE
  8
_0-2____C_____1
  6
CONTINUOUS
 62
    7
 10
30.132969500000002
 20
16.602204499999999
 11
30.132969500000002
 21
16.579020500000002
  0
LINE
  8
_0-2____C_____1
  6
CONTINUOUS
 62
    7
 10
30.132969500000002
 20
16.579020500000002
 11
30.1290075
 21
16.549908499999997
  0
LINE
  8
_0-2____C_____1
  6
CONTINUOUS
 62
    7
 10
30.1290075
 20
16.549908499999997
 11
30.146508499999999
 21
16.553870499999999
  0
LINE
  8
_0-2____C_____1
  6
CONTINUOUS
 62
    7
 10
30.146508499999999
 20
16.553870499999999
 11
30.1426175
 21
16.5209355
  0
LINE
  8
_0-2____C_____1
  6
CONTINUOUS
 62
    7
 10
30.1426175
 20
16.5209355
 11
30.130972500000002
 21
16.5209355
  0
LINE
  8
_0-2____C_____1
  6
CONTINUOUS
 62
    7
 10
30.130972500000002
 20
16.5209355
 11
30.125183500000006
 21
16.503504500000002
  0
LINE
  8
_0-2____C_____1
  6
CONTINUOUS
 62
    7
 10
30.125183500000006
 20
16.503504500000002
 11
30.121292499999999
 21
16.5209355
  0
LINE
  8
_0-2____C_____1
  6
CONTINUOUS
 62
    7
 10
30.121292499999999
 20
16.5209355
 11
30.101998500000004
 21
16.522900500000002
  0
LINE
  8
_0-2____C_____1
  6
CONTINUOUS
 62
    7
 10
30.101998500000004
 20
16.522900500000002
 11
30.101998500000004
 21
16.548014500000001
  0
LINE
  8
_0-2____C_____1
  6
CONTINUOUS
 62
    7
 10
30.101998500000004
 20
16.548014500000001
 11
30.117432500000003
 21
16.553870499999999
  0
LINE
  8
_0-2____C_____1
  6
CONTINUOUS
 62
    7
 10
30.117432500000003
 20
16.553870499999999
 11
30.121292499999999
 21
16.579020500000002
  0
LINE
  8
_0-2____C_____1
  6
CONTINUOUS
 62
    7
 10
30.121292499999999
 20
16.579020500000002
 11
30.103893500000005
 21
16.5770555
  0
LINE
  8
_0-2____C_____1
  6
CONTINUOUS
 62
    7
 10
30.103893500000005
 20
16.5770555
 11
30.101998500000004
 21
16.6138145
  0
LINE
  8
_0-2____C_____1
  6
CONTINUOUS
 62
    7
 10
30.101998500000004
 20
16.6138145
 11
30.127077500000002
 21
16.615744500000002
  0
LINE
  8
_0-2____C_____1
  6
CONTINUOUS
 62
    7
 10
30.127077500000002
 20
16.615744500000002
 11
30.130972500000002
 21
16.710624500000002
  0
LINE
  8
_0-2____C_____1
  6
CONTINUOUS
 62
    7
 10
30.130972500000002
 20
16.710624500000002
 11
30.140617500000005
 21
16.710624500000002
  0
LINE
  8
_0-2____C_____1
  6
CONTINUOUS
 62
    7
 10
30.140617500000005
 20
16.710624500000002
 11
30.140617500000005
 21
16.735770500000001
  0
LINE
  8
_0-2____C_____1
  6
CONTINUOUS
 62
    7
 10
30.140617500000005
 20
16.735770500000001
 11
30.1832335
 21
16.735770500000001
  0
LINE
  8
_0-2____C_____1
  6
CONTINUOUS
 62
    7
 10
30.051597500000003
 20
16.774494499999999
 11
30.053527500000001
 21
16.751310499999999
  0
LINE
  8
_0-2____C_____1
  6
CONTINUOUS
 62
    7
 10
30.0825675
 20
16.753204499999999
 11
30.0825675
 21
16.737699500000002
  0
LINE
  8
_0-2____C_____1
  6
CONTINUOUS
 62
    7
 10
30.041952500000004
 20
16.6737945
 11
30.039987500000002
 21
16.6583595
  0
LINE
  8
_0-2____C_____1
  6
CONTINUOUS
 62
    7
 10
30.080638499999999
 20
16.654500500000001
 11
30.080638499999999
 21
16.6274245
  0
LINE
  8
_0-2____C_____1
  6
CONTINUOUS
 62
    7
 10
30.080638499999999
 20
16.5964505
 11
30.080638499999999
 21
16.5731635
  0
LINE
  8
_0-2____C_____1
  6
CONTINUOUS
 62
    7
 10
30.171591500000002
 20
16.652503500000002
 11
30.171591500000002
 21
16.637034499999999
  0
LINE
  8
_0-2____C_____1
  6
CONTINUOUS
 62
    7
 10
30.173588500000001
 20
16.6176745
 11
30.173588500000001
 21
16.598345500000001
  0
LINE
  8
_0-2____C_____1
  6
CONTINUOUS
 62
    7
 10
30.173588500000001
 20
16.575125500000002
 11
30.173588500000001
 21
16.553870499999999
  0
LINE
  8
_0-2____C_____1
  6
CONTINUOUS
 62
    7
 10
29.970292499999999
 20
16.553870499999999
 11
29.968398500000003
 21
16.5403305
  0
LINE
  8
_0-2____C_____1
  6
CONTINUOUS
 62
    7
 10
30.161907500000002
 20
16.534439500000001
 11
30.160048500000006
 21
16.517008499999999
  0
LINE
  8
_0-2____C_____1
  6
CONTINUOUS
 62
    7
 10
30.160048500000006
 20
16.517008499999999
 11
30.181306500000005
 21
16.515114499999999
  0
LINE
  8
_0-2____C_____1
  6
CONTINUOUS
 62
    7
 10
30.181306500000005
 20
16.515114499999999
 11
30.177412500000003
 21
16.487999500000001
  0
LINE
  8
_0-2____C_____1
  6
CONTINUOUS
 62
    7
 10
30.177412500000003
 20
16.487999500000001
 11
30.192916500000003
 21
16.495718500000002
  0
LINE
  8
_0-2____C_____1
  6
CONTINUOUS
 62
    7
 10
30.192916500000003
 20
16.495718500000002
 11
30.192916500000003
 21
16.5403305
  0
LINE
  8
_0-2____C_____1
  6
CONTINUOUS
 62
    7
 10
30.192916500000003
 20
16.5403305
 11
30.161907500000002
 21
16.534439500000001
  0
LINE
  8
_0-2____C_____1
  6
CONTINUOUS
 62
    7
 10
30.059347500000001
 20
16.447349500000001
 11
30.0786765
 21
16.447349500000001
  0
LINE
  8
_0-2____C_____1
  6
CONTINUOUS
 62
    7
 10
30.090353499999999
 20
16.4454195
 11
30.0980375
 21
16.4454195
  0
LINE
  8
_0-2____C_____1
  6
CONTINUOUS
 62
    7
 10
30.0980375
 20
16.4454195
 11
30.094213500000002
 21
16.4357395
  0
LINE
  8
_0-2____C_____1
  6
CONTINUOUS
 62
    7
 10
30.119362500000001
 20
16.480249499999999
 11
30.117432500000003
 21
16.458990499999999
  0
LINE
  8
_0-2____C_____1
  6
CONTINUOUS
 62
    7
 10
30.117432500000003
 20
16.458990499999999
 11
30.132969500000002
 21
16.458990499999999
  0
LINE
  8
_0-2____C_____1
  6
CONTINUOUS
 62
    7
 10
30.132969500000002
 20
16.458990499999999
 11
30.138723500000005
 21
16.476354499999999
  0
LINE
  8
_0-2____C_____1
  6
CONTINUOUS
 62
    7
 10
30.138723500000005
 20
16.476354499999999
 11
30.119362500000001
 21
16.480249499999999
  0
LINE
  8
_0-2____C_____1
  6
CONTINUOUS
 62
    7
 10
29.3158955
 20
20.2156685
 11
29.546910500000003
 21
20.150661500000002
  0
LINE
  8
_0-2____C_____1
  6
CONTINUOUS
 62
    7
 10
29.546910500000003
 20
20.150661500000002
 11
29.603219500000002
 21
20.072570500000001
  0
LINE
  8
_0-2____C_____1
  6
CONTINUOUS
 62
    7
 10
29.603219500000002
 20
20.072570500000001
 11
29.597049500000004
 21
20.0347325
  0
LINE
  8
_0-2____C_____1
  6
CONTINUOUS
 62
    7
 10
29.597049500000004
 20
20.0347325
 11
29.527244500000002
 21
19.911694499999999
  0
LINE
  8
_0-2____C_____1
  6
CONTINUOUS
 62
    7
 10
29.527244500000002
 20
19.911694499999999
 11
29.280452500000003
 21
19.824240500000002
  0
LINE
  8
_0-2____C_____1
  6
CONTINUOUS
 62
    7
 10
29.280452500000003
 20
19.824240500000002
 11
28.800613500000004
 21
19.790958500000002
  0
LINE
  8
_0-2____C_____1
  6
CONTINUOUS
 62
    7
 10
28.800613500000004
 20
19.790958500000002
 11
28.400145500000004
 21
19.810115500000002
  0
LINE
  8
_0-2____C_____1
  6
CONTINUOUS
 62
    7
 10
28.400145500000004
 20
19.810115500000002
 11
28.1188945
 21
19.862357500000002
  0
LINE
  8
_0-2____C_____1
  6
CONTINUOUS
 62
    7
 10
28.1188945
 20
19.862357500000002
 11
27.952986500000005
 21
19.939843499999998
  0
LINE
  8
_0-2____C_____1
  6
CONTINUOUS
 62
    7
 10
27.952986500000005
 20
19.939843499999998
 11
27.898544500000003
 21
20.0347325
  0
LINE
  8
_0-2____C_____1
  6
CONTINUOUS
 62
    7
 10
27.898544500000003
 20
20.0347325
 11
27.9027745
 21
20.071551500000002
  0
LINE
  8
_0-2____C_____1
  6
CONTINUOUS
 62
    7
 10
27.9027745
 20
20.071551500000002
 11
27.9651815
 21
20.1603855
  0
LINE
  8
_0-2____C_____1
  6
CONTINUOUS
 62
    7
 10
27.9651815
 20
20.1603855
 11
28.160337500000004
 21
20.234274500000001
  0
LINE
  8
_0-2____C_____1
  6
CONTINUOUS
 62
    7
 10
29.316135500000001
 20
20.271376500000002
 11
29.339323500000003
 21
20.248191500000001
  0
LINE
  8
_0-2____C_____1
  6
CONTINUOUS
 62
    7
 10
29.595842500000003
 20
20.045241500000003
 11
29.595842500000003
 21
19.928898500000003
  0
LINE
  8
_0-2____C_____1
  6
CONTINUOUS
 62
    7
 10
27.898544500000003
 20
20.0347325
 11
27.898544500000003
 21
19.928898500000003
  0
LINE
  8
_0-2____C_____1
  6
CONTINUOUS
 62
    7
 10
29.595842500000003
 20
19.928898500000003
 11
29.529671500000003
 21
19.796148500000001
  0
LINE
  8
_0-2____C_____1
  6
CONTINUOUS
 62
    7
 10
29.529671500000003
 20
19.796148500000001
 11
29.292195500000005
 21
19.7018445
  0
LINE
  8
_0-2____C_____1
  6
CONTINUOUS
 62
    7
 10
29.292195500000005
 20
19.7018445
 11
28.824968500000001
 21
19.665969500000003
  0
LINE
  8
_0-2____C_____1
  6
CONTINUOUS
 62
    7
 10
27.898544500000003
 20
19.928898500000003
 11
27.954834500000004
 21
19.826512500000003
  0
LINE
  8
_0-2____C_____1
  6
CONTINUOUS
 62
    7
 10
27.954834500000004
 20
19.826512500000003
 11
28.125853500000005
 21
19.742941500000001
  0
LINE
  8
_0-2____C_____1
  6
CONTINUOUS
 62
    7
 10
28.125853500000005
 20
19.742941500000001
 11
28.414824500000005
 21
19.686617500000001
  0
LINE
  8
_0-2____C_____1
  6
CONTINUOUS
 62
    7
 10
28.414824500000005
 20
19.686617500000001
 11
28.824968500000001
 21
19.665969500000003
  0
LINE
  8
_0-2____C_____1
  6
CONTINUOUS
 62
    7
 10
29.493868500000005
 20
20.076349499999999
 11
29.488206500000004
 21
20.055429500000002
  0
LINE
  8
_0-2____C_____1
  6
CONTINUOUS
 62
    7
 10
29.488206500000004
 20
20.055429500000002
 11
29.473326500000002
 21
20.040540499999999
  0
LINE
  8
_0-2____C_____1
  6
CONTINUOUS
 62
    7
 10
29.473326500000002
 20
20.040540499999999
 11
29.452389500000006
 21
20.034869499999999
  0
LINE
  8
_0-2____C_____1
  6
CONTINUOUS
 62
    7
 10
29.452389500000006
 20
20.034869499999999
 11
29.4314775
 21
20.040540499999999
  0
LINE
  8
_0-2____C_____1
  6
CONTINUOUS
 62
    7
 10
29.4314775
 20
20.040540499999999
 11
29.4166065
 21
20.055429500000002
  0
LINE
  8
_0-2____C_____1
  6
CONTINUOUS
 62
    7
 10
29.4166065
 20
20.055429500000002
 11
29.410944499999999
 21
20.076349499999999
  0
LINE
  8
_0-2____C_____1
  6
CONTINUOUS
 62
    7
 10
29.410944499999999
 20
20.076349499999999
 11
29.4166065
 21
20.097269499999999
  0
LINE
  8
_0-2____C_____1
  6
CONTINUOUS
 62
    7
 10
29.4166065
 20
20.097269499999999
 11
29.4314775
 21
20.1121585
  0
LINE
  8
_0-2____C_____1
  6
CONTINUOUS
 62
    7
 10
29.4314775
 20
20.1121585
 11
29.452389500000006
 21
20.117829499999999
  0
LINE
  8
_0-2____C_____1
  6
CONTINUOUS
 62
    7
 10
29.452389500000006
 20
20.117829499999999
 11
29.473326500000002
 21
20.1121585
  0
LINE
  8
_0-2____C_____1
  6
CONTINUOUS
 62
    7
 10
29.473326500000002
 20
20.1121585
 11
29.488206500000004
 21
20.097269499999999
  0
LINE
  8
_0-2____C_____1
  6
CONTINUOUS
 62
    7
 10
29.488206500000004
 20
20.097269499999999
 11
29.493868500000005
 21
20.076349499999999
  0
LINE
  8
_0-2____C_____1
  6
CONTINUOUS
 62
    7
 10
28.0827545
 20
20.076349499999999
 11
28.077092499999999
 21
20.055429500000002
  0
LINE
  8
_0-2____C_____1
  6
CONTINUOUS
 62
    7
 10
28.077092499999999
 20
20.055429500000002
 11
28.062212500000005
 21
20.040540499999999
  0
LINE
  8
_0-2____C_____1
  6
CONTINUOUS
 62
    7
 10
28.062212500000005
 20
20.040540499999999
 11
28.041275500000001
 21
20.034869499999999
  0
LINE
  8
_0-2____C_____1
  6
CONTINUOUS
 62
    7
 10
28.041275500000001
 20
20.034869499999999
 11
28.020363500000002
 21
20.040540499999999
  0
LINE
  8
_0-2____C_____1
  6
CONTINUOUS
 62
    7
 10
28.020363500000002
 20
20.040540499999999
 11
28.005492500000003
 21
20.055429500000002
  0
LINE
  8
_0-2____C_____1
  6
CONTINUOUS
 62
    7
 10
28.005492500000003
 20
20.055429500000002
 11
27.999830500000002
 21
20.076349499999999
  0
LINE
  8
_0-2____C_____1
  6
CONTINUOUS
 62
    7
 10
27.999830500000002
 20
20.076349499999999
 11
28.005492500000003
 21
20.097269499999999
  0
LINE
  8
_0-2____C_____1
  6
CONTINUOUS
 62
    7
 10
28.005492500000003
 20
20.097269499999999
 11
28.020363500000002
 21
20.1121585
  0
LINE
  8
_0-2____C_____1
  6
CONTINUOUS
 62
    7
 10
28.020363500000002
 20
20.1121585
 11
28.041275500000001
 21
20.117829499999999
  0
LINE
  8
_0-2____C_____1
  6
CONTINUOUS
 62
    7
 10
28.041275500000001
 20
20.117829499999999
 11
28.062212500000005
 21
20.1121585
  0
LINE
  8
_0-2____C_____1
  6
CONTINUOUS
 62
    7
 10
28.062212500000005
 20
20.1121585
 11
28.077092499999999
 21
20.097269499999999
  0
LINE
  8
_0-2____C_____1
  6
CONTINUOUS
 62
    7
 10
28.077092499999999
 20
20.097269499999999
 11
28.0827545
 21
20.076349499999999
  0
LINE
  8
_0-2____C_____1
  6
CONTINUOUS
 62
    7
 10
28.8531485
 20
19.891659500000003
 11
28.847485500000005
 21
19.870730500000001
  0
LINE
  8
_0-2____C_____1
  6
CONTINUOUS
 62
    7
 10
28.847485500000005
 20
19.870730500000001
 11
28.8326055
 21
19.8558655
  0
LINE
  8
_0-2____C_____1
  6
CONTINUOUS
 62
    7
 10
28.8326055
 20
19.8558655
 11
28.811669500000001
 21
19.8502115
  0
LINE
  8
_0-2____C_____1
  6
CONTINUOUS
 62
    7
 10
28.811669500000001
 20
19.8502115
 11
28.790758499999999
 21
19.8558655
  0
LINE
  8
_0-2____C_____1
  6
CONTINUOUS
 62
    7
 10
28.790758499999999
 20
19.8558655
 11
28.775886500000002
 21
19.870730500000001
  0
LINE
  8
_0-2____C_____1
  6
CONTINUOUS
 62
    7
 10
28.775886500000002
 20
19.870730500000001
 11
28.770224500000001
 21
19.891659500000003
  0
LINE
  8
_0-2____C_____1
  6
CONTINUOUS
 62
    7
 10
28.770224500000001
 20
19.891659500000003
 11
28.775886500000002
 21
19.912586500000003
  0
LINE
  8
_0-2____C_____1
  6
CONTINUOUS
 62
    7
 10
28.775886500000002
 20
19.912586500000003
 11
28.790758499999999
 21
19.927449500000002
  0
LINE
  8
_0-2____C_____1
  6
CONTINUOUS
 62
    7
 10
28.790758499999999
 20
19.927449500000002
 11
28.811669500000001
 21
19.933103500000001
  0
LINE
  8
_0-2____C_____1
  6
CONTINUOUS
 62
    7
 10
28.811669500000001
 20
19.933103500000001
 11
28.8326055
 21
19.927449500000002
  0
LINE
  8
_0-2____C_____1
  6
CONTINUOUS
 62
    7
 10
28.8326055
 20
19.927449500000002
 11
28.847485500000005
 21
19.912586500000003
  0
LINE
  8
_0-2____C_____1
  6
CONTINUOUS
 62
    7
 10
28.847485500000005
 20
19.912586500000003
 11
28.8531485
 21
19.891659500000003
  0
TEXT
  8
_0-2____C_____1
 62
    7
 10
30.135421605681337
 20
20.269275430121375
 40
0.4233339999999999
 41
1
 50
0
  1
YW1416
  0
ENDSEC
  0
EOF
