  0
SECTION
  2
HEADER
  9
$ACADVER
  1
AC1012
  9
$DWGCODEPAGE
  3
ansi_1252
  9
$INSBASE
 10
0.0
 20
0.0
 30
0.0
  9
$EXTMIN
 10
6.696092
 20
12.500589
 30
0.0
  9
$EXTMAX
 10
12.661095
 20
19.900894
 30
0.0
  9
$LIMMIN
 10
6.696092
 20
12.500589
  9
$LIMMAX
 10
12.661095
 20
19.900894
  9
$ORTHOMODE
 70
     0
  9
$REGENMODE
 70
     1
  9
$FILLMODE
 70
     1
  9
$QTEXTMODE
 70
     0
  9
$MIRRTEXT
 70
     1
  9
$DRAGMODE
 70
     2
  9
$LTSCALE
 40
1.0
  9
$OSMODE
 70
     0
  9
$ATTMODE
 70
     1
  9
$TEXTSIZE
 40
0.2
  9
$TRACEWID
 40
0.05
  9
$TEXTSTYLE
  7
STANDARD
  9
$CLAYER
  8
0
  9
$CELTYPE
  6
CONTINUOUS
  9
$CECOLOR
 62
   256
  9
$CELTSCALE
 40
1.0
  9
$DELOBJ
 70
     1
  9
$DISPSILH
 70
     0
  9
$DIMSCALE
 40
1.0
  9
$DIMASZ
 40
0.18
  9
$DIMEXO
 40
0.0625
  9
$DIMDLI
 40
0.38
  9
$DIMRND
 40
0.0
  9
$DIMDLE
 40
0.0
  9
$DIMEXE
 40
0.18
  9
$DIMTP
 40
0.0
  9
$DIMTM
 40
0.0
  9
$DIMTXT
 40
0.18
  9
$DIMCEN
 40
0.09
  9
$DIMTSZ
 40
0.0
  9
$DIMTOL
 70
     0
  9
$DIMLIM
 70
     0
  9
$DIMTIH
 70
     1
  9
$DIMTOH
 70
     1
  9
$DIMSE1
 70
     0
  9
$DIMSE2
 70
     0
  9
$DIMTAD
 70
     0
  9
$DIMZIN
 70
     0
  9
$DIMBLK
  1

  9
$DIMASO
 70
     1
  9
$DIMSHO
 70
     1
  9
$DIMPOST
  1

  9
$DIMAPOST
  1

  9
$DIMALT
 70
     0
  9
$DIMALTD
 70
     2
  9
$DIMALTF
 40
25.4
  9
$DIMLFAC
 40
1.0
  9
$DIMTOFL
 70
     0
  9
$DIMTVP
 40
0.0
  9
$DIMTIX
 70
     0
  9
$DIMSOXD
 70
     0
  9
$DIMSAH
 70
     0
  9
$DIMBLK1
  1

  9
$DIMBLK2
  1

  9
$DIMSTYLE
  2
STANDARD
  9
$DIMCLRD
 70
     0
  9
$DIMCLRE
 70
     0
  9
$DIMCLRT
 70
     0
  9
$DIMTFAC
 40
1.0
  9
$DIMGAP
 40
0.09
  9
$DIMJUST
 70
     0
  9
$DIMSD1
 70
     0
  9
$DIMSD2
 70
     0
  9
$DIMTOLJ
 70
     1
  9
$DIMTZIN
 70
     0
  9
$DIMALTZ
 70
     0
  9
$DIMALTTZ
 70
     0
  9
$DIMFIT
 70
     3
  9
$DIMUPT
 70
     0
  9
$DIMUNIT
 70
     2
  9
$DIMDEC
 70
     4
  9
$DIMTDEC
 70
     4
  9
$DIMALTU
 70
     2
  9
$DIMALTTD
 70
     2
  9
$DIMTXSTY
  7
STANDARD
  9
$DIMAUNIT
 70
     0
  9
$LUNITS
 70
     2
  9
$LUPREC
 70
     0
  9
$SKETCHINC
 40
24.0
  9
$FILLETRAD
 40
50.0
  9
$AUNITS
 70
     2
  9
$AUPREC
 70
     0
  9
$MENU
  1
acad
  9
$ELEVATION
 40
0.0
  9
$PELEVATION
 40
0.0
  9
$THICKNESS
 40
200.0
  9
$LIMCHECK
 70
     0
  9
$BLIPMODE
 70
     1
  9
$CHAMFERA
 40
0.0
  9
$CHAMFERB
 40
0.0
  9
$CHAMFERC
 40
0.0
  9
$CHAMFERD
 40
0.0
  9
$SKPOLY
 70
     0
  9
$TDCREATE
 40
2453203.771608796
  9
$TDUPDATE
 40
2453203.771608796
  9
$TDINDWG
 40
0.0000000000
  9
$TDUSRTIMER
 40
0.0000000000
  9
$USRTIMER
 70
     1
  9
$ANGBASE
 50
0.0
  9
$ANGDIR
 70
     0
  9
$PDMODE
 70
     0
  9
$PDSIZE
 40
0.0
  9
$PLINEWID
 40
0.0
  9
$COORDS
 70
     0
  9
$SPLFRAME
 70
     0
  9
$SPLINETYPE
 70
     6
  9
$SPLINESEGS
 70
     8
  9
$ATTDIA
 70
     0
  9
$ATTREQ
 70
     1
  9
$HANDLING
 70
     1
  9
$HANDSEED
  5
22D
  9
$SURFTAB1
 70
     6
  9
$SURFTAB2
 70
     6
  9
$SURFTYPE
 70
     6
  9
$SURFU
 70
     6
  9
$SURFV
 70
     6
  9
$UCSNAME
  2

  9
$UCSORG
 10
0.0
 20
0.0
 30
0.0
  9
$UCSXDIR
 10
1.0
 20
0.0
 30
0.0
  9
$UCSYDIR
 10
0.0
 20
1.0
 30
0.0
  9
$PUCSNAME
  2

  9
$PUCSORG
 10
0.0
 20
0.0
 30
0.0
  9
$PUCSXDIR
 10
1.0
 20
0.0
 30
0.0
  9
$PUCSYDIR
 10
0.0
 20
1.0
 30
0.0
  9
$USERI1
 70
     0
  9
$USERI2
 70
     0
  9
$USERI3
 70
     0
  9
$USERI4
 70
     0
  9
$USERI5
 70
     0
  9
$USERR1
 40
0.0
  9
$USERR2
 40
0.0
  9
$USERR3
 40
0.0
  9
$USERR4
 40
0.0
  9
$USERR5
 40
0.0
  9
$WORLDVIEW
 70
     1
  9
$SHADEDGE
 70
     3
  9
$SHADEDIF
 70
    70
  9
$TILEMODE
 70
     1
  9
$MAXACTVP
 70
    16
  9
$PINSBASE
 10
0.0
 20
0.0
 30
0.0
  9
$PLIMCHECK
 70
     0
  9
$PEXTMIN
 10
1.797693E+308
 20
1.797693E+308
 30
1.000000E+20
  9
$PEXTMAX
 10
-1.797693E+308
 20
-1.797693E+308
 30
-1.000000E+20
  9
$PLIMMIN
 10
1.797693E+308
 20
1.797693E+308
  9
$PLIMMAX
 10
-1.797693E+308
 20
-1.797693E+308
  9
$UNITMODE
 70
     0
  9
$VISRETAIN
 70
     0
  9
$PLINEGEN
 70
     1
  9
$PSLTSCALE
 70
     0
  9
$TREEDEPTH
 70
  3020
  9
$PICKSTYLE
 70
     1
  9
$CMLSTYLE
  2
STANDARD
  9
$CMLJUST
 70
     0
  9
$CMLSCALE
 40
1.0
  9
$SAVEIMAGES
 70
     0
  0
ENDSEC
  0
SECTION
  2
CLASSES
  0
CLASS
  1
LWPOLYLINE
  2
AcDbPolyline
  3
"AutoCAD"
 90
        0
280
     0
281
     1
  0
CLASS
  1
IMAGE
  2
AcDbRasterImage
  3
ISM
 90
      127
280
     0
281
     1
  0
CLASS
  1
OLE2FRAME
  2
AcDbOle2Frame
  3
""
 90
        0
280
     0
281
     1
  0
CLASS
  1
HATCH
  2
AcDbHatch
  3
"ACAD_SEDONA"
 90
        0
280
     0
281
     1
  0
CLASS
  1
DICTIONARYVAR
  2
AcDbDictionaryVar
  3
"AutoCAD"
 90
        0
280
     0
281
     0
  0
CLASS
  1
RASTERVARIABLES
  2
AcDbRasterVariables
  3
ISM
 90
        0
280
     0
281
     0
  0
CLASS
  1
IMAGEDEF
  2
AcDbRasterImageDef
  3
ISM
 90
        0
280
     0
281
     0
  0
CLASS
  1
IMAGEDEF_REACTOR
  2
AcDbRasterImageDefReactor
  3
ISM
 90
        1
280
     0
281
     0
  0
CLASS
  1
IDBUFFER
  2
AcDbIdBuffer
  3
"Acad"
 90
        0
280
     0
281
     0
  0
CLASS
  1
SPATIAL_FILTER
  2
AcDbSpatialFilter
  3
"Acad"
 90
        0
280
     0
281
     0
  0
CLASS
  1
XRECORD
  2
AcDbXrecord
  3
"<Built In>"
 90
        0
280
     0
281
     0
  0
CLASS
  1
SORTENTSTABLE
  2
AcDbSortentsTable
  3
"AutoCAD"
 90
        0
280
     0
281
     0
  0
CLASS
  1
LAYER_INDEX
  2
AcDbLayerIndex
  3
"Acad"
 90
        0
280
     0
281
     0
  0
CLASS
  1
SPATIAL_INDEX
  2
AcDbSpatialIndex
  3
"Acad"
 90
        0
280
     0
281
     0
  0
CLASS
  1
OBJECT_PTR
  2
CAseDLPNTableRecord
  3
"ASE-LPNTableRecord"
 90
        1
280
     0
281
     0
  0
CLASS
  1
LAYOUT
  2
AcDbLayout
  3
"AutoCAD 2000"
 90
        1
280
     0
281
     0
  0
CLASS
  1
PLOTSETTINGS
  2
AcDbPlotSettings
  3
"AutoCAD 2000"
 90
        1
280
     0
281
     0
  0
CLASS
  1
ACDBDICTIONARYWDFLT
  2
AcDbDictionaryWithDefault
  3
"AutoCAD 2000"
 90
        1
280
     0
281
     0
  0
CLASS
  1
ACDBPLACEHOLDER
  2
AcDbPlaceHolder
  3
"AutoCAD 2000"
 90
        1
280
     0
281
     0
  0
CLASS
  1
VBA_PROJECT
  2
AcDbVbaProject
  3
"acadvba"
 90
        1
280
     0
281
     0
  0
CLASS
  1
WIPEOUT
  2
AcDbWipeout
  3
WipeOut|AutoCAD Express Tool|expresstools@autodesk.com
 90
      127
280
     0
281
     1
  0
CLASS
  1
WIPEOUTVARIABLES
  2
AcDbWipeoutVariables
  3
WipeOut|AutoCAD Express Tool|expresstools@autodesk.com
 90
        0
280
     0
281
     0
  0
CLASS
  1
RTEXT
  2
RText
  3
RText|AutoCAD Express Tool|expresstools@autodesk.com
 90
        0
280
     0
281
     1
  0
CLASS
  1
ARCALIGNEDTEXT
  2
AcDbArcAlignedText
  3
ATEXT|AutoCAD Express Tool|expresstools@autodesk.com
 90
        0
280
     0
281
     1
  0
ENDSEC
  0
SECTION
  2
TABLES
  0
TABLE
  2
VPORT
  5
7
100
AcDbSymbolTable
 70
     1
  0
VPORT
  5
15
100
AcDbSymbolTableRecord
100
AcDbViewportTableRecord
  2
*ACTIVE
 70
     0
 10
0.0
 20
0.0
 11
1.0
 21
1.0
 12
6.591288
 22
4.579184
 13
0.0
 23
0.0
 14
1.0
 24
1.0
 15
0.0
 25
0.0
 16
0.0
 26
0.0
 36
1.0
 17
0.0
 27
0.0
 37
0.0
 40
9.158369
 41
0.688564
 42
50.0
 43
0.0
 44
0.0
 50
0.0
 51
0.0
 71
     0
 72
   100
 73
     1
 74
     1
 75
     0
 76
     0
 77
     0
 78
     0
  0
ENDTAB
  0
TABLE
  2
LTYPE
  5
4
100
AcDbSymbolTable
 70
     5
  0
LTYPE
  5
11
100
AcDbSymbolTableRecord
100
AcDbLinetypeTableRecord
  2
BYBLOCK
 70
    64
  3

 72
    65
 73
     0
 40
0.0
  0
LTYPE
  5
12
100
AcDbSymbolTableRecord
100
AcDbLinetypeTableRecord
  2
BYLAYER
 70
    64
  3

 72
    65
 73
     0
 40
0.0
  0
LTYPE
  5
13
100
AcDbSymbolTableRecord
100
AcDbLinetypeTableRecord
  2
CONTINUOUS
 70
    64
  3
Solid line
 72
    65
 73
     0
 40
0.0
  0
LTYPE
  5
24
100
AcDbSymbolTableRecord
100
AcDbLinetypeTableRecord
  2
____1
 70
    64
  3

 72
    65
 73
     0
 40
0.0
  0
LTYPE
  5
25
100
AcDbSymbolTableRecord
100
AcDbLinetypeTableRecord
  2
_À_
 70
    64
  3

 72
    65
 73
     0
 40
0.0
  0
ENDTAB
  0
TABLE
  2
LAYER
  5
2
100
AcDbSymbolTable
 70
     3
  0
LAYER
  5
14
100
AcDbSymbolTableRecord
100
AcDbLayerTableRecord
  2
0
 70
     0
 62
     7
  6
CONTINUOUS
  0
LAYER
  5
26
100
AcDbSymbolTableRecord
100
AcDbLayerTableRecord
  2
___C__1
 70
    64
 62
     1
  6
CONTINUOUS
  0
LAYER
  5
27
100
AcDbSymbolTableRecord
100
AcDbLayerTableRecord
  2
___C____1
 70
    64
 62
     1
  6
CONTINUOUS
  0
ENDTAB
  0
TABLE
  2
STYLE
  5
3
100
AcDbSymbolTable
 70
     1
  0
STYLE
  5
17
100
AcDbSymbolTableRecord
100
AcDbTextStyleTableRecord
  2
STANDARD
 70
     0
 40
0.0
 41
1.0
 50
0.0
 71
     0
 42
0.0
  3
txt
  4

  0
ENDTAB
  0
TABLE
  2
VIEW
  5
5
100
AcDbSymbolTable
 70
     0
  0
ENDTAB
  0
TABLE
  2
UCS
  5
6
100
AcDbSymbolTable
 70
     0
  0
ENDTAB
  0
TABLE
  2
APPID
  5
8
100
AcDbSymbolTable
 70
     1
  0
APPID
  5
16
100
AcDbSymbolTableRecord
100
AcDbRegAppTableRecord
  2
ACAD
 70
     0
  0
ENDTAB
  0
TABLE
  2
DIMSTYLE
  5
9
100
AcDbSymbolTable
 70
     1
  0
DIMSTYLE
105
18
100
AcDbSymbolTableRecord
100
AcDbDimStyleTableRecord
  2
STANDARD
 70
     0
  3

  4

  5

  6

  7

 40
1.0
 41
0.18
 42
0.0625
 43
0.38
 44
0.18
 45
0.0
 46
0.0
 47
0.0
 48
0.0
 71
     0
 72
     0
 73
     1
 74
     1
 75
     0
 76
     0
 77
     0
 78
     0
140
0.18
141
0.09
142
0.0
143
25.4
144
1.0
145
0.0
146
1.0
147
0.09
170
     0
171
     2
172
     0
173
     0
174
     0
175
     0
176
     0
177
     0
178
     0
270
     2
271
     4
272
     4
273
     2
274
     2
275
     0
280
     0
281
     0
282
     0
283
     1
284
     0
285
     0
286
     0
287
     0
288
     0
340
17
  0
ENDTAB
  0
TABLE
  2
BLOCK_RECORD
  5
1
100
AcDbSymbolTable
 70
     0
  0
BLOCK_RECORD
  5
A
100
AcDbSymbolTableRecord
100
AcDbBlockTableRecord
  2
*MODEL_SPACE
  0
BLOCK_RECORD
  5
B
100
AcDbSymbolTableRecord
100
AcDbBlockTableRecord
  2
*PAPER_SPACE
  0
ENDTAB
  0
ENDSEC
  0
SECTION
  2
BLOCKS
  0
BLOCK
  5
D
100
AcDbEntity
  8
0
100
AcDbBlockBegin
  2
*MODEL_SPACE
 70
     0
 10
0.0
 20
0.0
 30
0.0
  3
*MODEL_SPACE
  1

  0
ENDBLK
  5
E
100
AcDbEntity
  8
0
100
AcDbBlockEnd
  0
BLOCK
  5
F
100
AcDbEntity
 67
     1
  8
0
100
AcDbBlockBegin
  2
*PAPER_SPACE
 70
     0
 10
0.0
 20
0.0
 30
0.0
  3
*PAPER_SPACE
  1

  0
ENDBLK
  5
10
100
AcDbEntity
 67
     1
  8
0
100
AcDbBlockEnd
  0
ENDSEC
  0
SECTION
  2
ENTITIES
  0
MTEXT
  5
28
100
AcDbEntity
  8
___C____1
  6
____1
 62
    18
100
AcDbMText
 10
11.473774
 20
13.213586
 30
0.0
 40
0.423334
 41
0.0
 71
     7
 72
     1
  1
{YZ1401}
  0
POLYLINE
  5
29
100
AcDbEntity
  8
___C____1
  6
____1
 62
    18
100
AcDb2dPolyline
 66
     1
 10
0.0
 20
0.0
 30
0.0
 70
     1
  0
VERTEX
  5
2A
100
AcDbEntity
  8
___C____1
  6
____1
 62
    18
100
AcDbVertex
100
AcDb2dVertex
 10
6.898523
 20
15.802151
 30
0.0
  0
VERTEX
  5
2B
100
AcDbEntity
  8
___C____1
  6
____1
 62
    18
100
AcDbVertex
100
AcDb2dVertex
 10
6.898523
 20
18.421531
 30
0.0
  0
VERTEX
  5
2C
100
AcDbEntity
  8
___C____1
  6
____1
 62
    18
100
AcDbVertex
100
AcDb2dVertex
 10
6.908106
 20
18.486349
 30
0.0
  0
VERTEX
  5
2D
100
AcDbEntity
  8
___C____1
  6
____1
 62
    18
100
AcDbVertex
100
AcDb2dVertex
 10
6.975183
 20
18.606725
 30
0.0
  0
VERTEX
  5
2E
100
AcDbEntity
  8
___C____1
  6
____1
 62
    18
100
AcDbVertex
100
AcDb2dVertex
 10
7.157251
 20
18.671542
 30
0.0
  0
VERTEX
  5
2F
100
AcDbEntity
  8
___C____1
  6
____1
 62
    18
100
AcDbVertex
100
AcDb2dVertex
 10
7.349491
 20
18.671542
 30
0.0
  0
VERTEX
  5
30
100
AcDbEntity
  8
___C____1
  6
____1
 62
    18
100
AcDbVertex
100
AcDb2dVertex
 10
7.667042
 20
18.671542
 30
0.0
  0
VERTEX
  5
31
100
AcDbEntity
  8
___C____1
  6
____1
 62
    18
100
AcDbVertex
100
AcDb2dVertex
 10
8.053451
 20
18.671542
 30
0.0
  0
VERTEX
  5
32
100
AcDbEntity
  8
___C____1
  6
____1
 62
    18
100
AcDbVertex
100
AcDb2dVertex
 10
8.452264
 20
18.671542
 30
0.0
  0
VERTEX
  5
33
100
AcDbEntity
  8
___C____1
  6
____1
 62
    18
100
AcDbVertex
100
AcDb2dVertex
 10
8.807026
 20
18.671542
 30
0.0
  0
VERTEX
  5
34
100
AcDbEntity
  8
___C____1
  6
____1
 62
    18
100
AcDbVertex
100
AcDb2dVertex
 10
9.061283
 20
18.671542
 30
0.0
  0
VERTEX
  5
35
100
AcDbEntity
  8
___C____1
  6
____1
 62
    18
100
AcDbVertex
100
AcDb2dVertex
 10
9.158581
 20
18.671542
 30
0.0
  0
VERTEX
  5
36
100
AcDbEntity
  8
___C____1
  6
____1
 62
    18
100
AcDbVertex
100
AcDb2dVertex
 10
9.221353
 20
18.660399
 30
0.0
  0
VERTEX
  5
37
100
AcDbEntity
  8
___C____1
  6
____1
 62
    18
100
AcDbVertex
100
AcDb2dVertex
 10
9.337931
 20
18.597281
 30
0.0
  0
VERTEX
  5
38
100
AcDbEntity
  8
___C____1
  6
____1
 62
    18
100
AcDbVertex
100
AcDb2dVertex
 10
9.400703
 20
18.437653
 30
0.0
  0
VERTEX
  5
39
100
AcDbEntity
  8
___C____1
  6
____1
 62
    18
100
AcDbVertex
100
AcDb2dVertex
 10
9.400703
 20
18.309737
 30
0.0
  0
VERTEX
  5
3A
100
AcDbEntity
  8
___C____1
  6
____1
 62
    18
100
AcDbVertex
100
AcDb2dVertex
 10
9.400703
 20
18.078034
 30
0.0
  0
VERTEX
  5
3B
100
AcDbEntity
  8
___C____1
  6
____1
 62
    18
100
AcDbVertex
100
AcDb2dVertex
 10
9.400703
 20
17.770163
 30
0.0
  0
VERTEX
  5
3C
100
AcDbEntity
  8
___C____1
  6
____1
 62
    18
100
AcDbVertex
100
AcDb2dVertex
 10
9.400703
 20
17.413739
 30
0.0
  0
VERTEX
  5
3D
100
AcDbEntity
  8
___C____1
  6
____1
 62
    18
100
AcDbVertex
100
AcDb2dVertex
 10
9.400703
 20
17.03638
 30
0.0
  0
VERTEX
  5
3E
100
AcDbEntity
  8
___C____1
  6
____1
 62
    18
100
AcDbVertex
100
AcDb2dVertex
 10
9.400703
 20
16.665703
 30
0.0
  0
VERTEX
  5
3F
100
AcDbEntity
  8
___C____1
  6
____1
 62
    18
100
AcDbVertex
100
AcDb2dVertex
 10
9.400703
 20
16.329324
 30
0.0
  0
VERTEX
  5
40
100
AcDbEntity
  8
___C____1
  6
____1
 62
    18
100
AcDbVertex
100
AcDb2dVertex
 10
9.400703
 20
16.054862
 30
0.0
  0
VERTEX
  5
41
100
AcDbEntity
  8
___C____1
  6
____1
 62
    18
100
AcDbVertex
100
AcDb2dVertex
 10
9.400703
 20
15.869932
 30
0.0
  0
VERTEX
  5
42
100
AcDbEntity
  8
___C____1
  6
____1
 62
    18
100
AcDbVertex
100
AcDb2dVertex
 10
9.400703
 20
15.802151
 30
0.0
  0
SEQEND
  5
43
100
AcDbEntity
  8
___C____1
  6
____1
 62
    18
  0
POLYLINE
  5
44
100
AcDbEntity
  8
___C____1
  6
____1
 62
    18
100
AcDb2dPolyline
 66
     1
 10
0.0
 20
0.0
 30
0.0
  0
VERTEX
  5
45
100
AcDbEntity
  8
___C____1
  6
____1
 62
    18
100
AcDbVertex
100
AcDb2dVertex
 10
7.057827
 20
18.655522
 30
0.0
  0
VERTEX
  5
46
100
AcDbEntity
  8
___C____1
  6
____1
 62
    18
100
AcDbVertex
100
AcDb2dVertex
 10
7.719492
 20
18.877939
 30
0.0
  0
VERTEX
  5
47
100
AcDbEntity
  8
___C____1
  6
____1
 62
    18
100
AcDbVertex
100
AcDb2dVertex
 10
7.911778
 20
18.877939
 30
0.0
  0
VERTEX
  5
48
100
AcDbEntity
  8
___C____1
  6
____1
 62
    18
100
AcDbVertex
100
AcDb2dVertex
 10
8.229356
 20
18.877939
 30
0.0
  0
VERTEX
  5
49
100
AcDbEntity
  8
___C____1
  6
____1
 62
    18
100
AcDbVertex
100
AcDb2dVertex
 10
8.615776
 20
18.877939
 30
0.0
  0
VERTEX
  5
4A
100
AcDbEntity
  8
___C____1
  6
____1
 62
    18
100
AcDbVertex
100
AcDb2dVertex
 10
9.014589
 20
18.877939
 30
0.0
  0
VERTEX
  5
4B
100
AcDbEntity
  8
___C____1
  6
____1
 62
    18
100
AcDbVertex
100
AcDb2dVertex
 10
9.369345
 20
18.877939
 30
0.0
  0
VERTEX
  5
4C
100
AcDbEntity
  8
___C____1
  6
____1
 62
    18
100
AcDbVertex
100
AcDb2dVertex
 10
9.623594
 20
18.877939
 30
0.0
  0
VERTEX
  5
4D
100
AcDbEntity
  8
___C____1
  6
____1
 62
    18
100
AcDbVertex
100
AcDb2dVertex
 10
9.720889
 20
18.877939
 30
0.0
  0
VERTEX
  5
4E
100
AcDbEntity
  8
___C____1
  6
____1
 62
    18
100
AcDbVertex
100
AcDb2dVertex
 10
9.783572
 20
18.866844
 30
0.0
  0
VERTEX
  5
4F
100
AcDbEntity
  8
___C____1
  6
____1
 62
    18
100
AcDbVertex
100
AcDb2dVertex
 10
9.899985
 20
18.803789
 30
0.0
  0
VERTEX
  5
50
100
AcDbEntity
  8
___C____1
  6
____1
 62
    18
100
AcDbVertex
100
AcDb2dVertex
 10
9.962669
 20
18.644121
 30
0.0
  0
VERTEX
  5
51
100
AcDbEntity
  8
___C____1
  6
____1
 62
    18
100
AcDbVertex
100
AcDb2dVertex
 10
9.962669
 20
18.517914
 30
0.0
  0
VERTEX
  5
52
100
AcDbEntity
  8
___C____1
  6
____1
 62
    18
100
AcDbVertex
100
AcDb2dVertex
 10
9.962669
 20
18.290872
 30
0.0
  0
VERTEX
  5
53
100
AcDbEntity
  8
___C____1
  6
____1
 62
    18
100
AcDbVertex
100
AcDb2dVertex
 10
9.962669
 20
17.989874
 30
0.0
  0
VERTEX
  5
54
100
AcDbEntity
  8
___C____1
  6
____1
 62
    18
100
AcDbVertex
100
AcDb2dVertex
 10
9.962669
 20
17.6418
 30
0.0
  0
VERTEX
  5
55
100
AcDbEntity
  8
___C____1
  6
____1
 62
    18
100
AcDbVertex
100
AcDb2dVertex
 10
9.962669
 20
17.273529
 30
0.0
  0
VERTEX
  5
56
100
AcDbEntity
  8
___C____1
  6
____1
 62
    18
100
AcDbVertex
100
AcDb2dVertex
 10
9.962669
 20
16.911941
 30
0.0
  0
VERTEX
  5
57
100
AcDbEntity
  8
___C____1
  6
____1
 62
    18
100
AcDbVertex
100
AcDb2dVertex
 10
9.962669
 20
16.583915
 30
0.0
  0
VERTEX
  5
58
100
AcDbEntity
  8
___C____1
  6
____1
 62
    18
100
AcDbVertex
100
AcDb2dVertex
 10
9.962669
 20
16.316331
 30
0.0
  0
VERTEX
  5
59
100
AcDbEntity
  8
___C____1
  6
____1
 62
    18
100
AcDbVertex
100
AcDb2dVertex
 10
9.962669
 20
16.136069
 30
0.0
  0
VERTEX
  5
5A
100
AcDbEntity
  8
___C____1
  6
____1
 62
    18
100
AcDbVertex
100
AcDb2dVertex
 10
9.962669
 20
16.070009
 30
0.0
  0
SEQEND
  5
5B
100
AcDbEntity
  8
___C____1
  6
____1
 62
    18
  0
POLYLINE
  5
5C
100
AcDbEntity
  8
___C____1
  6
____1
 62
    18
100
AcDb2dPolyline
 66
     1
 10
0.0
 20
0.0
 30
0.0
  0
VERTEX
  5
5D
100
AcDbEntity
  8
___C____1
  6
____1
 62
    18
100
AcDbVertex
100
AcDb2dVertex
 10
6.898523
 20
15.943573
 30
0.0
  0
VERTEX
  5
5E
100
AcDbEntity
  8
___C____1
  6
____1
 62
    18
100
AcDbVertex
100
AcDb2dVertex
 10
6.696092
 20
15.943573
 30
0.0
  0
VERTEX
  5
5F
100
AcDbEntity
  8
___C____1
  6
____1
 62
    18
100
AcDbVertex
100
AcDb2dVertex
 10
6.696092
 20
15.530607
 30
0.0
  0
VERTEX
  5
60
100
AcDbEntity
  8
___C____1
  6
____1
 62
    18
100
AcDbVertex
100
AcDb2dVertex
 10
9.597416
 20
15.530607
 30
0.0
  0
VERTEX
  5
61
100
AcDbEntity
  8
___C____1
  6
____1
 62
    18
100
AcDbVertex
100
AcDb2dVertex
 10
9.597416
 20
15.943573
 30
0.0
  0
VERTEX
  5
62
100
AcDbEntity
  8
___C____1
  6
____1
 62
    18
100
AcDbVertex
100
AcDb2dVertex
 10
9.400703
 20
15.943573
 30
0.0
  0
SEQEND
  5
63
100
AcDbEntity
  8
___C____1
  6
____1
 62
    18
  0
POLYLINE
  5
64
100
AcDbEntity
  8
___C____1
  6
____1
 62
    18
100
AcDb2dPolyline
 66
     1
 10
0.0
 20
0.0
 30
0.0
  0
VERTEX
  5
65
100
AcDbEntity
  8
___C____1
  6
____1
 62
    18
100
AcDbVertex
100
AcDb2dVertex
 10
6.696092
 20
15.943573
 30
0.0
  0
VERTEX
  5
66
100
AcDbEntity
  8
___C____1
  6
____1
 62
    18
100
AcDbVertex
100
AcDb2dVertex
 10
6.898523
 20
16.052127
 30
0.0
  0
SEQEND
  5
67
100
AcDbEntity
  8
___C____1
  6
____1
 62
    18
  0
POLYLINE
  5
68
100
AcDbEntity
  8
___C____1
  6
____1
 62
    18
100
AcDb2dPolyline
 66
     1
 10
0.0
 20
0.0
 30
0.0
  0
VERTEX
  5
69
100
AcDbEntity
  8
___C____1
  6
____1
 62
    18
100
AcDbVertex
100
AcDb2dVertex
 10
9.597416
 20
15.943573
 30
0.0
  0
VERTEX
  5
6A
100
AcDbEntity
  8
___C____1
  6
____1
 62
    18
100
AcDbVertex
100
AcDb2dVertex
 10
10.061129
 20
16.117204
 30
0.0
  0
VERTEX
  5
6B
100
AcDbEntity
  8
___C____1
  6
____1
 62
    18
100
AcDbVertex
100
AcDb2dVertex
 10
10.061129
 20
15.726325
 30
0.0
  0
VERTEX
  5
6C
100
AcDbEntity
  8
___C____1
  6
____1
 62
    18
100
AcDbVertex
100
AcDb2dVertex
 10
9.597416
 20
15.530607
 30
0.0
  0
SEQEND
  5
6D
100
AcDbEntity
  8
___C____1
  6
____1
 62
    18
  0
POLYLINE
  5
6E
100
AcDbEntity
  8
___C____1
  6
____1
 62
    18
100
AcDb2dPolyline
 66
     1
 10
0.0
 20
0.0
 30
0.0
  0
VERTEX
  5
6F
100
AcDbEntity
  8
___C____1
  6
____1
 62
    18
100
AcDbVertex
100
AcDb2dVertex
 10
10.061129
 20
16.117204
 30
0.0
  0
VERTEX
  5
70
100
AcDbEntity
  8
___C____1
  6
____1
 62
    18
100
AcDbVertex
100
AcDb2dVertex
 10
9.962669
 20
16.117204
 30
0.0
  0
VERTEX
  5
71
100
AcDbEntity
  8
___C____1
  6
____1
 62
    18
100
AcDbVertex
100
AcDb2dVertex
 10
9.597416
 20
15.986947
 30
0.0
  0
VERTEX
  5
72
100
AcDbEntity
  8
___C____1
  6
____1
 62
    18
100
AcDbVertex
100
AcDb2dVertex
 10
9.400703
 20
15.986947
 30
0.0
  0
SEQEND
  5
73
100
AcDbEntity
  8
___C____1
  6
____1
 62
    18
  0
POLYLINE
  5
74
100
AcDbEntity
  8
___C____1
  6
____1
 62
    18
100
AcDb2dPolyline
 66
     1
 10
0.0
 20
0.0
 30
0.0
  0
VERTEX
  5
75
100
AcDbEntity
  8
___C____1
  6
____1
 62
    18
100
AcDbVertex
100
AcDb2dVertex
 10
6.898523
 20
15.845663
 30
0.0
  0
VERTEX
  5
76
100
AcDbEntity
  8
___C____1
  6
____1
 62
    18
100
AcDbVertex
100
AcDb2dVertex
 10
9.400703
 20
15.845663
 30
0.0
  0
SEQEND
  5
77
100
AcDbEntity
  8
___C____1
  6
____1
 62
    18
  0
POLYLINE
  5
78
100
AcDbEntity
  8
___C____1
  6
____1
 62
    18
100
AcDb2dPolyline
 66
     1
 10
0.0
 20
0.0
 30
0.0
  0
VERTEX
  5
79
100
AcDbEntity
  8
___C____1
  6
____1
 62
    18
100
AcDbVertex
100
AcDb2dVertex
 10
6.943517
 20
15.845663
 30
0.0
  0
VERTEX
  5
7A
100
AcDbEntity
  8
___C____1
  6
____1
 62
    18
100
AcDbVertex
100
AcDb2dVertex
 10
6.943517
 20
15.976092
 30
0.0
  0
SEQEND
  5
7B
100
AcDbEntity
  8
___C____1
  6
____1
 62
    18
  0
POLYLINE
  5
7C
100
AcDbEntity
  8
___C____1
  6
____1
 62
    18
100
AcDb2dPolyline
 66
     1
 10
0.0
 20
0.0
 30
0.0
  0
VERTEX
  5
7D
100
AcDbEntity
  8
___C____1
  6
____1
 62
    18
100
AcDbVertex
100
AcDb2dVertex
 10
7.044665
 20
18.671542
 30
0.0
  0
VERTEX
  5
7E
100
AcDbEntity
  8
___C____1
  6
____1
 62
    18
100
AcDbVertex
100
AcDb2dVertex
 10
7.044665
 20
15.845663
 30
0.0
  0
SEQEND
  5
7F
100
AcDbEntity
  8
___C____1
  6
____1
 62
    18
  0
POLYLINE
  5
80
100
AcDbEntity
  8
___C____1
  6
____1
 62
    18
100
AcDb2dPolyline
 66
     1
 10
0.0
 20
0.0
 30
0.0
  0
VERTEX
  5
81
100
AcDbEntity
  8
___C____1
  6
____1
 62
    18
100
AcDbVertex
100
AcDb2dVertex
 10
9.208189
 20
18.671542
 30
0.0
  0
VERTEX
  5
82
100
AcDbEntity
  8
___C____1
  6
____1
 62
    18
100
AcDbVertex
100
AcDb2dVertex
 10
9.208189
 20
15.845663
 30
0.0
  0
SEQEND
  5
83
100
AcDbEntity
  8
___C____1
  6
____1
 62
    18
  0
POLYLINE
  5
84
100
AcDbEntity
  8
___C____1
  6
____1
 62
    18
100
AcDb2dPolyline
 66
     1
 10
0.0
 20
0.0
 30
0.0
  0
VERTEX
  5
85
100
AcDbEntity
  8
___C____1
  6
____1
 62
    18
100
AcDbVertex
100
AcDb2dVertex
 10
8.991632
 20
18.671542
 30
0.0
  0
VERTEX
  5
86
100
AcDbEntity
  8
___C____1
  6
____1
 62
    18
100
AcDbVertex
100
AcDb2dVertex
 10
8.991632
 20
15.845663
 30
0.0
  0
SEQEND
  5
87
100
AcDbEntity
  8
___C____1
  6
____1
 62
    18
  0
POLYLINE
  5
88
100
AcDbEntity
  8
___C____1
  6
____1
 62
    18
100
AcDb2dPolyline
 66
     1
 10
0.0
 20
0.0
 30
0.0
  0
VERTEX
  5
89
100
AcDbEntity
  8
___C____1
  6
____1
 62
    18
100
AcDbVertex
100
AcDb2dVertex
 10
8.775622
 20
18.671542
 30
0.0
  0
VERTEX
  5
8A
100
AcDbEntity
  8
___C____1
  6
____1
 62
    18
100
AcDbVertex
100
AcDb2dVertex
 10
8.775622
 20
15.845663
 30
0.0
  0
SEQEND
  5
8B
100
AcDbEntity
  8
___C____1
  6
____1
 62
    18
  0
POLYLINE
  5
8C
100
AcDbEntity
  8
___C____1
  6
____1
 62
    18
100
AcDb2dPolyline
 66
     1
 10
0.0
 20
0.0
 30
0.0
  0
VERTEX
  5
8D
100
AcDbEntity
  8
___C____1
  6
____1
 62
    18
100
AcDbVertex
100
AcDb2dVertex
 10
8.559066
 20
18.671542
 30
0.0
  0
VERTEX
  5
8E
100
AcDbEntity
  8
___C____1
  6
____1
 62
    18
100
AcDbVertex
100
AcDb2dVertex
 10
8.559066
 20
15.845663
 30
0.0
  0
SEQEND
  5
8F
100
AcDbEntity
  8
___C____1
  6
____1
 62
    18
  0
POLYLINE
  5
90
100
AcDbEntity
  8
___C____1
  6
____1
 62
    18
100
AcDb2dPolyline
 66
     1
 10
0.0
 20
0.0
 30
0.0
  0
VERTEX
  5
91
100
AcDbEntity
  8
___C____1
  6
____1
 62
    18
100
AcDbVertex
100
AcDb2dVertex
 10
8.342989
 20
18.671542
 30
0.0
  0
VERTEX
  5
92
100
AcDbEntity
  8
___C____1
  6
____1
 62
    18
100
AcDbVertex
100
AcDb2dVertex
 10
8.342989
 20
15.845663
 30
0.0
  0
SEQEND
  5
93
100
AcDbEntity
  8
___C____1
  6
____1
 62
    18
  0
POLYLINE
  5
94
100
AcDbEntity
  8
___C____1
  6
____1
 62
    18
100
AcDb2dPolyline
 66
     1
 10
0.0
 20
0.0
 30
0.0
  0
VERTEX
  5
95
100
AcDbEntity
  8
___C____1
  6
____1
 62
    18
100
AcDbVertex
100
AcDb2dVertex
 10
8.126496
 20
18.671542
 30
0.0
  0
VERTEX
  5
96
100
AcDbEntity
  8
___C____1
  6
____1
 62
    18
100
AcDbVertex
100
AcDb2dVertex
 10
8.126496
 20
15.845663
 30
0.0
  0
SEQEND
  5
97
100
AcDbEntity
  8
___C____1
  6
____1
 62
    18
  0
POLYLINE
  5
98
100
AcDbEntity
  8
___C____1
  6
____1
 62
    18
100
AcDb2dPolyline
 66
     1
 10
0.0
 20
0.0
 30
0.0
  0
VERTEX
  5
99
100
AcDbEntity
  8
___C____1
  6
____1
 62
    18
100
AcDbVertex
100
AcDb2dVertex
 10
7.910144
 20
18.671542
 30
0.0
  0
VERTEX
  5
9A
100
AcDbEntity
  8
___C____1
  6
____1
 62
    18
100
AcDbVertex
100
AcDb2dVertex
 10
7.910144
 20
15.845663
 30
0.0
  0
SEQEND
  5
9B
100
AcDbEntity
  8
___C____1
  6
____1
 62
    18
  0
POLYLINE
  5
9C
100
AcDbEntity
  8
___C____1
  6
____1
 62
    18
100
AcDb2dPolyline
 66
     1
 10
0.0
 20
0.0
 30
0.0
  0
VERTEX
  5
9D
100
AcDbEntity
  8
___C____1
  6
____1
 62
    18
100
AcDbVertex
100
AcDb2dVertex
 10
7.693792
 20
18.671542
 30
0.0
  0
VERTEX
  5
9E
100
AcDbEntity
  8
___C____1
  6
____1
 62
    18
100
AcDbVertex
100
AcDb2dVertex
 10
7.693792
 20
15.845663
 30
0.0
  0
SEQEND
  5
9F
100
AcDbEntity
  8
___C____1
  6
____1
 62
    18
  0
POLYLINE
  5
A0
100
AcDbEntity
  8
___C____1
  6
____1
 62
    18
100
AcDb2dPolyline
 66
     1
 10
0.0
 20
0.0
 30
0.0
  0
VERTEX
  5
A1
100
AcDbEntity
  8
___C____1
  6
____1
 62
    18
100
AcDbVertex
100
AcDb2dVertex
 10
7.47744
 20
18.671542
 30
0.0
  0
VERTEX
  5
A2
100
AcDbEntity
  8
___C____1
  6
____1
 62
    18
100
AcDbVertex
100
AcDb2dVertex
 10
7.47744
 20
15.845663
 30
0.0
  0
SEQEND
  5
A3
100
AcDbEntity
  8
___C____1
  6
____1
 62
    18
  0
POLYLINE
  5
A4
100
AcDbEntity
  8
___C____1
  6
____1
 62
    18
100
AcDb2dPolyline
 66
     1
 10
0.0
 20
0.0
 30
0.0
  0
VERTEX
  5
A5
100
AcDbEntity
  8
___C____1
  6
____1
 62
    18
100
AcDbVertex
100
AcDb2dVertex
 10
7.261017
 20
18.671542
 30
0.0
  0
VERTEX
  5
A6
100
AcDbEntity
  8
___C____1
  6
____1
 62
    18
100
AcDbVertex
100
AcDb2dVertex
 10
7.261017
 20
15.845663
 30
0.0
  0
SEQEND
  5
A7
100
AcDbEntity
  8
___C____1
  6
____1
 62
    18
  0
POLYLINE
  5
A8
100
AcDbEntity
  8
___C____1
  6
____1
 62
    18
100
AcDb2dPolyline
 66
     1
 10
0.0
 20
0.0
 30
0.0
  0
VERTEX
  5
A9
100
AcDbEntity
  8
___C____1
  6
____1
 62
    18
100
AcDbVertex
100
AcDb2dVertex
 10
7.022066
 20
15.530607
 30
0.0
  0
VERTEX
  5
AA
100
AcDbEntity
  8
___C____1
  6
____1
 62
    18
100
AcDbVertex
100
AcDb2dVertex
 10
7.022066
 20
14.563239
 30
0.0
  0
VERTEX
  5
AB
100
AcDbEntity
  8
___C____1
  6
____1
 62
    18
100
AcDbVertex
100
AcDb2dVertex
 10
7.033756
 20
14.51817
 30
0.0
  0
VERTEX
  5
AC
100
AcDbEntity
  8
___C____1
  6
____1
 62
    18
100
AcDbVertex
100
AcDb2dVertex
 10
7.085456
 20
14.43447
 30
0.0
  0
VERTEX
  5
AD
100
AcDbEntity
  8
___C____1
  6
____1
 62
    18
100
AcDbVertex
100
AcDb2dVertex
 10
7.202107
 20
14.3894
 30
0.0
  0
VERTEX
  5
AE
100
AcDbEntity
  8
___C____1
  6
____1
 62
    18
100
AcDbVertex
100
AcDb2dVertex
 10
7.361981
 20
14.3894
 30
0.0
  0
VERTEX
  5
AF
100
AcDbEntity
  8
___C____1
  6
____1
 62
    18
100
AcDbVertex
100
AcDb2dVertex
 10
7.665626
 20
14.3894
 30
0.0
  0
VERTEX
  5
B0
100
AcDbEntity
  8
___C____1
  6
____1
 62
    18
100
AcDbVertex
100
AcDb2dVertex
 10
8.051673
 20
14.3894
 30
0.0
  0
VERTEX
  5
B1
100
AcDbEntity
  8
___C____1
  6
____1
 62
    18
100
AcDbVertex
100
AcDb2dVertex
 10
8.458756
 20
14.3894
 30
0.0
  0
VERTEX
  5
B2
100
AcDbEntity
  8
___C____1
  6
____1
 62
    18
100
AcDbVertex
100
AcDb2dVertex
 10
8.825508
 20
14.3894
 30
0.0
  0
VERTEX
  5
B3
100
AcDbEntity
  8
___C____1
  6
____1
 62
    18
100
AcDbVertex
100
AcDb2dVertex
 10
9.090562
 20
14.3894
 30
0.0
  0
VERTEX
  5
B4
100
AcDbEntity
  8
___C____1
  6
____1
 62
    18
100
AcDbVertex
100
AcDb2dVertex
 10
9.19255
 20
14.3894
 30
0.0
  0
VERTEX
  5
B5
100
AcDbEntity
  8
___C____1
  6
____1
 62
    18
100
AcDbVertex
100
AcDb2dVertex
 10
9.234618
 20
14.386292
 30
0.0
  0
VERTEX
  5
B6
100
AcDbEntity
  8
___C____1
  6
____1
 62
    18
100
AcDbVertex
100
AcDb2dVertex
 10
9.335896
 20
14.394852
 30
0.0
  0
VERTEX
  5
B7
100
AcDbEntity
  8
___C____1
  6
____1
 62
    18
100
AcDbVertex
100
AcDb2dVertex
 10
9.458993
 20
14.441904
 30
0.0
  0
VERTEX
  5
B8
100
AcDbEntity
  8
___C____1
  6
____1
 62
    18
100
AcDbVertex
100
AcDb2dVertex
 10
9.849254
 20
14.717513
 30
0.0
  0
VERTEX
  5
B9
100
AcDbEntity
  8
___C____1
  6
____1
 62
    18
100
AcDbVertex
100
AcDb2dVertex
 10
9.863678
 20
14.732576
 30
0.0
  0
VERTEX
  5
BA
100
AcDbEntity
  8
___C____1
  6
____1
 62
    18
100
AcDbVertex
100
AcDb2dVertex
 10
9.89519
 20
14.778584
 30
0.0
  0
VERTEX
  5
BB
100
AcDbEntity
  8
___C____1
  6
____1
 62
    18
100
AcDbVertex
100
AcDb2dVertex
 10
9.926149
 20
14.856761
 30
0.0
  0
VERTEX
  5
BC
100
AcDbEntity
  8
___C____1
  6
____1
 62
    18
100
AcDbVertex
100
AcDb2dVertex
 10
9.926149
 20
15.669238
 30
0.0
  0
SEQEND
  5
BD
100
AcDbEntity
  8
___C____1
  6
____1
 62
    18
  0
POLYLINE
  5
BE
100
AcDbEntity
  8
___C____1
  6
____1
 62
    18
100
AcDb2dPolyline
 66
     1
 10
0.0
 20
0.0
 30
0.0
  0
VERTEX
  5
BF
100
AcDbEntity
  8
___C____1
  6
____1
 62
    18
100
AcDbVertex
100
AcDb2dVertex
 10
7.348524
 20
15.530607
 30
0.0
  0
VERTEX
  5
C0
100
AcDbEntity
  8
___C____1
  6
____1
 62
    18
100
AcDbVertex
100
AcDb2dVertex
 10
7.348524
 20
14.541603
 30
0.0
  0
VERTEX
  5
C1
100
AcDbEntity
  8
___C____1
  6
____1
 62
    18
100
AcDbVertex
100
AcDb2dVertex
 10
7.351849
 20
14.519114
 30
0.0
  0
VERTEX
  5
C2
100
AcDbEntity
  8
___C____1
  6
____1
 62
    18
100
AcDbVertex
100
AcDb2dVertex
 10
7.375125
 20
14.477348
 30
0.0
  0
VERTEX
  5
C3
100
AcDbEntity
  8
___C____1
  6
____1
 62
    18
100
AcDbVertex
100
AcDb2dVertex
 10
7.438303
 20
14.454858
 30
0.0
  0
VERTEX
  5
C4
100
AcDbEntity
  8
___C____1
  6
____1
 62
    18
100
AcDbVertex
100
AcDb2dVertex
 10
7.566791
 20
14.454858
 30
0.0
  0
VERTEX
  5
C5
100
AcDbEntity
  8
___C____1
  6
____1
 62
    18
100
AcDbVertex
100
AcDb2dVertex
 10
7.836246
 20
14.454858
 30
0.0
  0
VERTEX
  5
C6
100
AcDbEntity
  8
___C____1
  6
____1
 62
    18
100
AcDbVertex
100
AcDb2dVertex
 10
8.188082
 20
14.454858
 30
0.0
  0
VERTEX
  5
C7
100
AcDbEntity
  8
___C____1
  6
____1
 62
    18
100
AcDbVertex
100
AcDb2dVertex
 10
8.563714
 20
14.454858
 30
0.0
  0
VERTEX
  5
C8
100
AcDbEntity
  8
___C____1
  6
____1
 62
    18
100
AcDbVertex
100
AcDb2dVertex
 10
8.904557
 20
14.454858
 30
0.0
  0
VERTEX
  5
C9
100
AcDbEntity
  8
___C____1
  6
____1
 62
    18
100
AcDbVertex
100
AcDb2dVertex
 10
9.152026
 20
14.454858
 30
0.0
  0
VERTEX
  5
CA
100
AcDbEntity
  8
___C____1
  6
____1
 62
    18
100
AcDbVertex
100
AcDb2dVertex
 10
9.247534
 20
14.454858
 30
0.0
  0
VERTEX
  5
CB
100
AcDbEntity
  8
___C____1
  6
____1
 62
    18
100
AcDbVertex
100
AcDb2dVertex
 10
9.279902
 20
14.454656
 30
0.0
  0
VERTEX
  5
CC
100
AcDbEntity
  8
___C____1
  6
____1
 62
    18
100
AcDbVertex
100
AcDb2dVertex
 10
9.340014
 20
14.481815
 30
0.0
  0
VERTEX
  5
CD
100
AcDbEntity
  8
___C____1
  6
____1
 62
    18
100
AcDbVertex
100
AcDb2dVertex
 10
9.372382
 20
14.577985
 30
0.0
  0
VERTEX
  5
CE
100
AcDbEntity
  8
___C____1
  6
____1
 62
    18
100
AcDbVertex
100
AcDb2dVertex
 10
9.372382
 20
14.868355
 30
0.0
  0
VERTEX
  5
CF
100
AcDbEntity
  8
___C____1
  6
____1
 62
    18
100
AcDbVertex
100
AcDb2dVertex
 10
9.372382
 20
15.305328
 30
0.0
  0
VERTEX
  5
D0
100
AcDbEntity
  8
___C____1
  6
____1
 62
    18
100
AcDbVertex
100
AcDb2dVertex
 10
9.372382
 20
15.530607
 30
0.0
  0
SEQEND
  5
D1
100
AcDbEntity
  8
___C____1
  6
____1
 62
    18
  0
POLYLINE
  5
D2
100
AcDbEntity
  8
___C____1
  6
____1
 62
    18
100
AcDb2dPolyline
 66
     1
 10
0.0
 20
0.0
 30
0.0
  0
VERTEX
  5
D3
100
AcDbEntity
  8
___C____1
  6
____1
 62
    18
100
AcDbVertex
100
AcDb2dVertex
 10
7.602292
 20
18.838318
 30
0.0
  0
VERTEX
  5
D4
100
AcDbEntity
  8
___C____1
  6
____1
 62
    18
100
AcDbVertex
100
AcDb2dVertex
 10
7.610912
 20
18.903261
 30
0.0
  0
VERTEX
  5
D5
100
AcDbEntity
  8
___C____1
  6
____1
 62
    18
100
AcDbVertex
100
AcDb2dVertex
 10
7.677041
 20
19.023869
 30
0.0
  0
VERTEX
  5
D6
100
AcDbEntity
  8
___C____1
  6
____1
 62
    18
100
AcDbVertex
100
AcDb2dVertex
 10
7.861086
 20
19.088812
 30
0.0
  0
VERTEX
  5
D7
100
AcDbEntity
  8
___C____1
  6
____1
 62
    18
100
AcDbVertex
100
AcDb2dVertex
 10
8.026684
 20
19.088812
 30
0.0
  0
VERTEX
  5
D8
100
AcDbEntity
  8
___C____1
  6
____1
 62
    18
100
AcDbVertex
100
AcDb2dVertex
 10
8.29959
 20
19.088812
 30
0.0
  0
VERTEX
  5
D9
100
AcDbEntity
  8
___C____1
  6
____1
 62
    18
100
AcDbVertex
100
AcDb2dVertex
 10
8.639924
 20
19.088812
 30
0.0
  0
VERTEX
  5
DA
100
AcDbEntity
  8
___C____1
  6
____1
 62
    18
100
AcDbVertex
100
AcDb2dVertex
 10
9.007806
 20
19.088812
 30
0.0
  0
VERTEX
  5
DB
100
AcDbEntity
  8
___C____1
  6
____1
 62
    18
100
AcDbVertex
100
AcDb2dVertex
 10
9.363357
 20
19.088812
 30
0.0
  0
VERTEX
  5
DC
100
AcDbEntity
  8
___C____1
  6
____1
 62
    18
100
AcDbVertex
100
AcDb2dVertex
 10
9.666698
 20
19.088812
 30
0.0
  0
VERTEX
  5
DD
100
AcDbEntity
  8
___C____1
  6
____1
 62
    18
100
AcDbVertex
100
AcDb2dVertex
 10
9.877947
 20
19.088812
 30
0.0
  0
VERTEX
  5
DE
100
AcDbEntity
  8
___C____1
  6
____1
 62
    18
100
AcDbVertex
100
AcDb2dVertex
 10
9.957226
 20
19.088812
 30
0.0
  0
VERTEX
  5
DF
100
AcDbEntity
  8
___C____1
  6
____1
 62
    18
100
AcDbVertex
100
AcDb2dVertex
 10
10.056868
 20
19.079855
 30
0.0
  0
VERTEX
  5
E0
100
AcDbEntity
  8
___C____1
  6
____1
 62
    18
100
AcDbVertex
100
AcDb2dVertex
 10
10.241918
 20
18.988308
 30
0.0
  0
VERTEX
  5
E1
100
AcDbEntity
  8
___C____1
  6
____1
 62
    18
100
AcDbVertex
100
AcDb2dVertex
 10
10.34156
 20
18.717156
 30
0.0
  0
VERTEX
  5
E2
100
AcDbEntity
  8
___C____1
  6
____1
 62
    18
100
AcDbVertex
100
AcDb2dVertex
 10
10.34156
 20
18.605034
 30
0.0
  0
VERTEX
  5
E3
100
AcDbEntity
  8
___C____1
  6
____1
 62
    18
100
AcDbVertex
100
AcDb2dVertex
 10
10.34156
 20
18.423333
 30
0.0
  0
VERTEX
  5
E4
100
AcDbEntity
  8
___C____1
  6
____1
 62
    18
100
AcDbVertex
100
AcDb2dVertex
 10
10.34156
 20
18.182653
 30
0.0
  0
VERTEX
  5
E5
100
AcDbEntity
  8
___C____1
  6
____1
 62
    18
100
AcDbVertex
100
AcDb2dVertex
 10
10.34156
 20
17.893593
 30
0.0
  0
VERTEX
  5
E6
100
AcDbEntity
  8
___C____1
  6
____1
 62
    18
100
AcDbVertex
100
AcDb2dVertex
 10
10.34156
 20
17.56675
 30
0.0
  0
VERTEX
  5
E7
100
AcDbEntity
  8
___C____1
  6
____1
 62
    18
100
AcDbVertex
100
AcDb2dVertex
 10
10.34156
 20
17.212725
 30
0.0
  0
VERTEX
  5
E8
100
AcDbEntity
  8
___C____1
  6
____1
 62
    18
100
AcDbVertex
100
AcDb2dVertex
 10
10.34156
 20
16.842114
 30
0.0
  0
VERTEX
  5
E9
100
AcDbEntity
  8
___C____1
  6
____1
 62
    18
100
AcDbVertex
100
AcDb2dVertex
 10
10.34156
 20
16.465518
 30
0.0
  0
VERTEX
  5
EA
100
AcDbEntity
  8
___C____1
  6
____1
 62
    18
100
AcDbVertex
100
AcDb2dVertex
 10
10.34156
 20
16.093534
 30
0.0
  0
VERTEX
  5
EB
100
AcDbEntity
  8
___C____1
  6
____1
 62
    18
100
AcDbVertex
100
AcDb2dVertex
 10
10.34156
 20
15.736762
 30
0.0
  0
VERTEX
  5
EC
100
AcDbEntity
  8
___C____1
  6
____1
 62
    18
100
AcDbVertex
100
AcDb2dVertex
 10
10.34156
 20
15.405799
 30
0.0
  0
VERTEX
  5
ED
100
AcDbEntity
  8
___C____1
  6
____1
 62
    18
100
AcDbVertex
100
AcDb2dVertex
 10
10.34156
 20
15.111245
 30
0.0
  0
VERTEX
  5
EE
100
AcDbEntity
  8
___C____1
  6
____1
 62
    18
100
AcDbVertex
100
AcDb2dVertex
 10
10.34156
 20
14.863697
 30
0.0
  0
VERTEX
  5
EF
100
AcDbEntity
  8
___C____1
  6
____1
 62
    18
100
AcDbVertex
100
AcDb2dVertex
 10
10.34156
 20
14.673756
 30
0.0
  0
VERTEX
  5
F0
100
AcDbEntity
  8
___C____1
  6
____1
 62
    18
100
AcDbVertex
100
AcDb2dVertex
 10
10.34156
 20
14.552018
 30
0.0
  0
VERTEX
  5
F1
100
AcDbEntity
  8
___C____1
  6
____1
 62
    18
100
AcDbVertex
100
AcDb2dVertex
 10
10.34156
 20
14.509084
 30
0.0
  0
VERTEX
  5
F2
100
AcDbEntity
  8
___C____1
  6
____1
 62
    18
100
AcDbVertex
100
AcDb2dVertex
 10
10.338901
 20
14.475911
 30
0.0
  0
VERTEX
  5
F3
100
AcDbEntity
  8
___C____1
  6
____1
 62
    18
100
AcDbVertex
100
AcDb2dVertex
 10
10.327177
 20
14.414304
 30
0.0
  0
VERTEX
  5
F4
100
AcDbEntity
  8
___C____1
  6
____1
 62
    18
100
AcDbVertex
100
AcDb2dVertex
 10
10.300768
 20
14.381131
 30
0.0
  0
VERTEX
  5
F5
100
AcDbEntity
  8
___C____1
  6
____1
 62
    18
100
AcDbVertex
100
AcDb2dVertex
 10
7.543653
 20
14.381131
 30
0.0
  0
SEQEND
  5
F6
100
AcDbEntity
  8
___C____1
  6
____1
 62
    18
  0
POLYLINE
  5
F7
100
AcDbEntity
  8
___C____1
  6
____1
 62
    18
100
AcDb2dPolyline
 66
     1
 10
0.0
 20
0.0
 30
0.0
  0
VERTEX
  5
F8
100
AcDbEntity
  8
___C____1
  6
____1
 62
    18
100
AcDbVertex
100
AcDb2dVertex
 10
7.728244
 20
19.060113
 30
0.0
  0
VERTEX
  5
F9
100
AcDbEntity
  8
___C____1
  6
____1
 62
    18
100
AcDbVertex
100
AcDb2dVertex
 10
7.92289
 20
19.148414
 30
0.0
  0
VERTEX
  5
FA
100
AcDbEntity
  8
___C____1
  6
____1
 62
    18
100
AcDbVertex
100
AcDb2dVertex
 10
9.990778
 20
19.148414
 30
0.0
  0
VERTEX
  5
FB
100
AcDbEntity
  8
___C____1
  6
____1
 62
    18
100
AcDbVertex
100
AcDb2dVertex
 10
10.097066
 20
19.126491
 30
0.0
  0
VERTEX
  5
FC
100
AcDbEntity
  8
___C____1
  6
____1
 62
    18
100
AcDbVertex
100
AcDb2dVertex
 10
10.294458
 20
19.01658
 30
0.0
  0
VERTEX
  5
FD
100
AcDbEntity
  8
___C____1
  6
____1
 62
    18
100
AcDbVertex
100
AcDb2dVertex
 10
10.400746
 20
18.752466
 30
0.0
  0
VERTEX
  5
FE
100
AcDbEntity
  8
___C____1
  6
____1
 62
    18
100
AcDbVertex
100
AcDb2dVertex
 10
10.400746
 20
18.644886
 30
0.0
  0
VERTEX
  5
FF
100
AcDbEntity
  8
___C____1
  6
____1
 62
    18
100
AcDbVertex
100
AcDb2dVertex
 10
10.400746
 20
18.465732
 30
0.0
  0
VERTEX
  5
100
100
AcDbEntity
  8
___C____1
  6
____1
 62
    18
100
AcDbVertex
100
AcDb2dVertex
 10
10.400746
 20
18.225835
 30
0.0
  0
VERTEX
  5
101
100
AcDbEntity
  8
___C____1
  6
____1
 62
    18
100
AcDbVertex
100
AcDb2dVertex
 10
10.400746
 20
17.936031
 30
0.0
  0
VERTEX
  5
102
100
AcDbEntity
  8
___C____1
  6
____1
 62
    18
100
AcDbVertex
100
AcDb2dVertex
 10
10.400746
 20
17.607153
 30
0.0
  0
VERTEX
  5
103
100
AcDbEntity
  8
___C____1
  6
____1
 62
    18
100
AcDbVertex
100
AcDb2dVertex
 10
10.400746
 20
17.250035
 30
0.0
  0
VERTEX
  5
104
100
AcDbEntity
  8
___C____1
  6
____1
 62
    18
100
AcDbVertex
100
AcDb2dVertex
 10
10.400746
 20
16.875511
 30
0.0
  0
VERTEX
  5
105
100
AcDbEntity
  8
___C____1
  6
____1
 62
    18
100
AcDbVertex
100
AcDb2dVertex
 10
10.400746
 20
16.494414
 30
0.0
  0
VERTEX
  5
106
100
AcDbEntity
  8
___C____1
  6
____1
 62
    18
100
AcDbVertex
100
AcDb2dVertex
 10
10.400746
 20
16.117578
 30
0.0
  0
VERTEX
  5
107
100
AcDbEntity
  8
___C____1
  6
____1
 62
    18
100
AcDbVertex
100
AcDb2dVertex
 10
10.400746
 20
15.755838
 30
0.0
  0
VERTEX
  5
108
100
AcDbEntity
  8
___C____1
  6
____1
 62
    18
100
AcDbVertex
100
AcDb2dVertex
 10
10.400746
 20
15.420026
 30
0.0
  0
VERTEX
  5
109
100
AcDbEntity
  8
___C____1
  6
____1
 62
    18
100
AcDbVertex
100
AcDb2dVertex
 10
10.400746
 20
15.120977
 30
0.0
  0
VERTEX
  5
10A
100
AcDbEntity
  8
___C____1
  6
____1
 62
    18
100
AcDbVertex
100
AcDb2dVertex
 10
10.400746
 20
14.869525
 30
0.0
  0
VERTEX
  5
10B
100
AcDbEntity
  8
___C____1
  6
____1
 62
    18
100
AcDbVertex
100
AcDb2dVertex
 10
10.400746
 20
14.676502
 30
0.0
  0
VERTEX
  5
10C
100
AcDbEntity
  8
___C____1
  6
____1
 62
    18
100
AcDbVertex
100
AcDb2dVertex
 10
10.400746
 20
14.552744
 30
0.0
  0
VERTEX
  5
10D
100
AcDbEntity
  8
___C____1
  6
____1
 62
    18
100
AcDbVertex
100
AcDb2dVertex
 10
10.400746
 20
14.509084
 30
0.0
  0
VERTEX
  5
10E
100
AcDbEntity
  8
___C____1
  6
____1
 62
    18
100
AcDbVertex
100
AcDb2dVertex
 10
10.394027
 20
14.456611
 30
0.0
  0
VERTEX
  5
10F
100
AcDbEntity
  8
___C____1
  6
____1
 62
    18
100
AcDbVertex
100
AcDb2dVertex
 10
10.341389
 20
14.365001
 30
0.0
  0
VERTEX
  5
110
100
AcDbEntity
  8
___C____1
  6
____1
 62
    18
100
AcDbVertex
100
AcDb2dVertex
 10
10.194109
 20
14.33297
 30
0.0
  0
VERTEX
  5
111
100
AcDbEntity
  8
___C____1
  6
____1
 62
    18
100
AcDbVertex
100
AcDb2dVertex
 10
7.543653
 20
14.33297
 30
0.0
  0
SEQEND
  5
112
100
AcDbEntity
  8
___C____1
  6
____1
 62
    18
  0
POLYLINE
  5
113
100
AcDbEntity
  8
___C____1
  6
____1
 62
    18
100
AcDb2dPolyline
 66
     1
 10
0.0
 20
0.0
 30
0.0
  0
VERTEX
  5
114
100
AcDbEntity
  8
___C____1
  6
____1
 62
    18
100
AcDbVertex
100
AcDb2dVertex
 10
7.840967
 20
19.123779
 30
0.0
  0
VERTEX
  5
115
100
AcDbEntity
  8
___C____1
  6
____1
 62
    18
100
AcDbVertex
100
AcDb2dVertex
 10
7.845834
 20
19.160632
 30
0.0
  0
VERTEX
  5
116
100
AcDbEntity
  8
___C____1
  6
____1
 62
    18
100
AcDbVertex
100
AcDb2dVertex
 10
7.879532
 20
19.229072
 30
0.0
  0
VERTEX
  5
117
100
AcDbEntity
  8
___C____1
  6
____1
 62
    18
100
AcDbVertex
100
AcDb2dVertex
 10
7.970709
 20
19.265924
 30
0.0
  0
VERTEX
  5
118
100
AcDbEntity
  8
___C____1
  6
____1
 62
    18
100
AcDbVertex
100
AcDb2dVertex
 10
8.074281
 20
19.265924
 30
0.0
  0
VERTEX
  5
119
100
AcDbEntity
  8
___C____1
  6
____1
 62
    18
100
AcDbVertex
100
AcDb2dVertex
 10
8.310131
 20
19.265924
 30
0.0
  0
VERTEX
  5
11A
100
AcDbEntity
  8
___C____1
  6
____1
 62
    18
100
AcDbVertex
100
AcDb2dVertex
 10
8.639685
 20
19.265924
 30
0.0
  0
VERTEX
  5
11B
100
AcDbEntity
  8
___C____1
  6
____1
 62
    18
100
AcDbVertex
100
AcDb2dVertex
 10
9.024369
 20
19.265924
 30
0.0
  0
VERTEX
  5
11C
100
AcDbEntity
  8
___C____1
  6
____1
 62
    18
100
AcDbVertex
100
AcDb2dVertex
 10
9.425609
 20
19.265924
 30
0.0
  0
VERTEX
  5
11D
100
AcDbEntity
  8
___C____1
  6
____1
 62
    18
100
AcDbVertex
100
AcDb2dVertex
 10
9.804832
 20
19.265924
 30
0.0
  0
VERTEX
  5
11E
100
AcDbEntity
  8
___C____1
  6
____1
 62
    18
100
AcDbVertex
100
AcDb2dVertex
 10
10.123463
 20
19.265924
 30
0.0
  0
VERTEX
  5
11F
100
AcDbEntity
  8
___C____1
  6
____1
 62
    18
100
AcDbVertex
100
AcDb2dVertex
 10
10.34293
 20
19.265924
 30
0.0
  0
VERTEX
  5
120
100
AcDbEntity
  8
___C____1
  6
____1
 62
    18
100
AcDbVertex
100
AcDb2dVertex
 10
10.424657
 20
19.265924
 30
0.0
  0
VERTEX
  5
121
100
AcDbEntity
  8
___C____1
  6
____1
 62
    18
100
AcDbVertex
100
AcDb2dVertex
 10
10.514979
 20
19.262268
 30
0.0
  0
VERTEX
  5
122
100
AcDbEntity
  8
___C____1
  6
____1
 62
    18
100
AcDbVertex
100
AcDb2dVertex
 10
10.682721
 20
19.1838
 30
0.0
  0
VERTEX
  5
123
100
AcDbEntity
  8
___C____1
  6
____1
 62
    18
100
AcDbVertex
100
AcDb2dVertex
 10
10.773043
 20
18.929271
 30
0.0
  0
VERTEX
  5
124
100
AcDbEntity
  8
___C____1
  6
____1
 62
    18
100
AcDbVertex
100
AcDb2dVertex
 10
10.773043
 20
18.823273
 30
0.0
  0
VERTEX
  5
125
100
AcDbEntity
  8
___C____1
  6
____1
 62
    18
100
AcDbVertex
100
AcDb2dVertex
 10
10.773043
 20
18.649152
 30
0.0
  0
VERTEX
  5
126
100
AcDbEntity
  8
___C____1
  6
____1
 62
    18
100
AcDbVertex
100
AcDb2dVertex
 10
10.773043
 20
18.416532
 30
0.0
  0
VERTEX
  5
127
100
AcDbEntity
  8
___C____1
  6
____1
 62
    18
100
AcDbVertex
100
AcDb2dVertex
 10
10.773043
 20
18.135033
 30
0.0
  0
VERTEX
  5
128
100
AcDbEntity
  8
___C____1
  6
____1
 62
    18
100
AcDbVertex
100
AcDb2dVertex
 10
10.773043
 20
17.814279
 30
0.0
  0
VERTEX
  5
129
100
AcDbEntity
  8
___C____1
  6
____1
 62
    18
100
AcDbVertex
100
AcDb2dVertex
 10
10.773043
 20
17.46389
 30
0.0
  0
VERTEX
  5
12A
100
AcDbEntity
  8
___C____1
  6
____1
 62
    18
100
AcDbVertex
100
AcDb2dVertex
 10
10.773043
 20
17.09349
 30
0.0
  0
VERTEX
  5
12B
100
AcDbEntity
  8
___C____1
  6
____1
 62
    18
100
AcDbVertex
100
AcDb2dVertex
 10
10.773043
 20
16.712699
 30
0.0
  0
VERTEX
  5
12C
100
AcDbEntity
  8
___C____1
  6
____1
 62
    18
100
AcDbVertex
100
AcDb2dVertex
 10
10.773043
 20
16.33114
 30
0.0
  0
VERTEX
  5
12D
100
AcDbEntity
  8
___C____1
  6
____1
 62
    18
100
AcDbVertex
100
AcDb2dVertex
 10
10.773043
 20
15.958435
 30
0.0
  0
VERTEX
  5
12E
100
AcDbEntity
  8
___C____1
  6
____1
 62
    18
100
AcDbVertex
100
AcDb2dVertex
 10
10.773043
 20
15.604206
 30
0.0
  0
VERTEX
  5
12F
100
AcDbEntity
  8
___C____1
  6
____1
 62
    18
100
AcDbVertex
100
AcDb2dVertex
 10
10.773043
 20
15.278076
 30
0.0
  0
VERTEX
  5
130
100
AcDbEntity
  8
___C____1
  6
____1
 62
    18
100
AcDbVertex
100
AcDb2dVertex
 10
10.773043
 20
14.989665
 30
0.0
  0
VERTEX
  5
131
100
AcDbEntity
  8
___C____1
  6
____1
 62
    18
100
AcDbVertex
100
AcDb2dVertex
 10
10.773043
 20
14.748596
 30
0.0
  0
VERTEX
  5
132
100
AcDbEntity
  8
___C____1
  6
____1
 62
    18
100
AcDbVertex
100
AcDb2dVertex
 10
10.773043
 20
14.56449
 30
0.0
  0
VERTEX
  5
133
100
AcDbEntity
  8
___C____1
  6
____1
 62
    18
100
AcDbVertex
100
AcDb2dVertex
 10
10.773043
 20
14.446971
 30
0.0
  0
VERTEX
  5
134
100
AcDbEntity
  8
___C____1
  6
____1
 62
    18
100
AcDbVertex
100
AcDb2dVertex
 10
10.773043
 20
14.40566
 30
0.0
  0
VERTEX
  5
135
100
AcDbEntity
  8
___C____1
  6
____1
 62
    18
100
AcDbVertex
100
AcDb2dVertex
 10
10.753972
 20
14.317683
 30
0.0
  0
VERTEX
  5
136
100
AcDbEntity
  8
___C____1
  6
____1
 62
    18
100
AcDbVertex
100
AcDb2dVertex
 10
10.656853
 20
14.154296
 30
0.0
  0
VERTEX
  5
137
100
AcDbEntity
  8
___C____1
  6
____1
 62
    18
100
AcDbVertex
100
AcDb2dVertex
 10
10.421831
 20
14.066319
 30
0.0
  0
VERTEX
  5
138
100
AcDbEntity
  8
___C____1
  6
____1
 62
    18
100
AcDbVertex
100
AcDb2dVertex
 10
9.698085
 20
14.066319
 30
0.0
  0
SEQEND
  5
139
100
AcDbEntity
  8
___C____1
  6
____1
 62
    18
  0
POLYLINE
  5
13A
100
AcDbEntity
  8
___C____1
  6
____1
 62
    18
100
AcDb2dPolyline
 66
     1
 10
0.0
 20
0.0
 30
0.0
  0
VERTEX
  5
13B
100
AcDbEntity
  8
___C____1
  6
____1
 62
    18
100
AcDbVertex
100
AcDb2dVertex
 10
10.49721
 20
14.073897
 30
0.0
  0
VERTEX
  5
13C
100
AcDbEntity
  8
___C____1
  6
____1
 62
    18
100
AcDbVertex
100
AcDb2dVertex
 10
10.740729
 20
14.16334
 30
0.0
  0
VERTEX
  5
13D
100
AcDbEntity
  8
___C____1
  6
____1
 62
    18
100
AcDbVertex
100
AcDb2dVertex
 10
10.828798
 20
14.321363
 30
0.0
  0
VERTEX
  5
13E
100
AcDbEntity
  8
___C____1
  6
____1
 62
    18
100
AcDbVertex
100
AcDb2dVertex
 10
10.840565
 20
14.40566
 30
0.0
  0
VERTEX
  5
13F
100
AcDbEntity
  8
___C____1
  6
____1
 62
    18
100
AcDbVertex
100
AcDb2dVertex
 10
10.840565
 20
14.443822
 30
0.0
  0
VERTEX
  5
140
100
AcDbEntity
  8
___C____1
  6
____1
 62
    18
100
AcDbVertex
100
AcDb2dVertex
 10
10.840565
 20
14.552659
 30
0.0
  0
VERTEX
  5
141
100
AcDbEntity
  8
___C____1
  6
____1
 62
    18
100
AcDbVertex
100
AcDb2dVertex
 10
10.840565
 20
14.723704
 30
0.0
  0
VERTEX
  5
142
100
AcDbEntity
  8
___C____1
  6
____1
 62
    18
100
AcDbVertex
100
AcDb2dVertex
 10
10.840565
 20
14.948485
 30
0.0
  0
VERTEX
  5
143
100
AcDbEntity
  8
___C____1
  6
____1
 62
    18
100
AcDbVertex
100
AcDb2dVertex
 10
10.840565
 20
15.218532
 30
0.0
  0
VERTEX
  5
144
100
AcDbEntity
  8
___C____1
  6
____1
 62
    18
100
AcDbVertex
100
AcDb2dVertex
 10
10.840565
 20
15.525375
 30
0.0
  0
VERTEX
  5
145
100
AcDbEntity
  8
___C____1
  6
____1
 62
    18
100
AcDbVertex
100
AcDb2dVertex
 10
10.840565
 20
15.860545
 30
0.0
  0
VERTEX
  5
146
100
AcDbEntity
  8
___C____1
  6
____1
 62
    18
100
AcDbVertex
100
AcDb2dVertex
 10
10.840565
 20
16.215571
 30
0.0
  0
VERTEX
  5
147
100
AcDbEntity
  8
___C____1
  6
____1
 62
    18
100
AcDbVertex
100
AcDb2dVertex
 10
10.840565
 20
16.581983
 30
0.0
  0
VERTEX
  5
148
100
AcDbEntity
  8
___C____1
  6
____1
 62
    18
100
AcDbVertex
100
AcDb2dVertex
 10
10.840565
 20
16.951312
 30
0.0
  0
VERTEX
  5
149
100
AcDbEntity
  8
___C____1
  6
____1
 62
    18
100
AcDbVertex
100
AcDb2dVertex
 10
10.840565
 20
17.315086
 30
0.0
  0
VERTEX
  5
14A
100
AcDbEntity
  8
___C____1
  6
____1
 62
    18
100
AcDbVertex
100
AcDb2dVertex
 10
10.840565
 20
17.664837
 30
0.0
  0
VERTEX
  5
14B
100
AcDbEntity
  8
___C____1
  6
____1
 62
    18
100
AcDbVertex
100
AcDb2dVertex
 10
10.840565
 20
17.992094
 30
0.0
  0
VERTEX
  5
14C
100
AcDbEntity
  8
___C____1
  6
____1
 62
    18
100
AcDbVertex
100
AcDb2dVertex
 10
10.840565
 20
18.288387
 30
0.0
  0
VERTEX
  5
14D
100
AcDbEntity
  8
___C____1
  6
____1
 62
    18
100
AcDbVertex
100
AcDb2dVertex
 10
10.840565
 20
18.545247
 30
0.0
  0
VERTEX
  5
14E
100
AcDbEntity
  8
___C____1
  6
____1
 62
    18
100
AcDbVertex
100
AcDb2dVertex
 10
10.840565
 20
18.754202
 30
0.0
  0
VERTEX
  5
14F
100
AcDbEntity
  8
___C____1
  6
____1
 62
    18
100
AcDbVertex
100
AcDb2dVertex
 10
10.840565
 20
18.906784
 30
0.0
  0
VERTEX
  5
150
100
AcDbEntity
  8
___C____1
  6
____1
 62
    18
100
AcDbVertex
100
AcDb2dVertex
 10
10.840565
 20
18.994521
 30
0.0
  0
VERTEX
  5
151
100
AcDbEntity
  8
___C____1
  6
____1
 62
    18
100
AcDbVertex
100
AcDb2dVertex
 10
10.750243
 20
19.221875
 30
0.0
  0
VERTEX
  5
152
100
AcDbEntity
  8
___C____1
  6
____1
 62
    18
100
AcDbVertex
100
AcDb2dVertex
 10
10.582501
 20
19.313974
 30
0.0
  0
VERTEX
  5
153
100
AcDbEntity
  8
___C____1
  6
____1
 62
    18
100
AcDbVertex
100
AcDb2dVertex
 10
10.492179
 20
19.331245
 30
0.0
  0
VERTEX
  5
154
100
AcDbEntity
  8
___C____1
  6
____1
 62
    18
100
AcDbVertex
100
AcDb2dVertex
 10
8.003094
 20
19.331245
 30
0.0
  0
VERTEX
  5
155
100
AcDbEntity
  8
___C____1
  6
____1
 62
    18
100
AcDbVertex
100
AcDb2dVertex
 10
7.986146
 20
19.319236
 30
0.0
  0
VERTEX
  5
156
100
AcDbEntity
  8
___C____1
  6
____1
 62
    18
100
AcDbVertex
100
AcDb2dVertex
 10
7.944225
 20
19.286847
 30
0.0
  0
VERTEX
  5
157
100
AcDbEntity
  8
___C____1
  6
____1
 62
    18
100
AcDbVertex
100
AcDb2dVertex
 10
7.890713
 20
19.239537
 30
0.0
  0
SEQEND
  5
158
100
AcDbEntity
  8
___C____1
  6
____1
 62
    18
  0
POLYLINE
  5
159
100
AcDbEntity
  8
___C____1
  6
____1
 62
    18
100
AcDb2dPolyline
 66
     1
 10
0.0
 20
0.0
 30
0.0
  0
VERTEX
  5
15A
100
AcDbEntity
  8
___C____1
  6
____1
 62
    18
100
AcDbVertex
100
AcDb2dVertex
 10
8.517653
 20
19.331245
 30
0.0
  0
VERTEX
  5
15B
100
AcDbEntity
  8
___C____1
  6
____1
 62
    18
100
AcDbVertex
100
AcDb2dVertex
 10
9.062117
 20
19.839122
 30
0.0
  0
VERTEX
  5
15C
100
AcDbEntity
  8
___C____1
  6
____1
 62
    18
100
AcDbVertex
100
AcDb2dVertex
 10
9.550013
 20
19.839122
 30
0.0
  0
VERTEX
  5
15D
100
AcDbEntity
  8
___C____1
  6
____1
 62
    18
100
AcDbVertex
100
AcDb2dVertex
 10
10.146498
 20
19.331245
 30
0.0
  0
SEQEND
  5
15E
100
AcDbEntity
  8
___C____1
  6
____1
 62
    18
  0
POLYLINE
  5
15F
100
AcDbEntity
  8
___C____1
  6
____1
 62
    18
100
AcDb2dPolyline
 66
     1
 10
0.0
 20
0.0
 30
0.0
  0
VERTEX
  5
160
100
AcDbEntity
  8
___C____1
  6
____1
 62
    18
100
AcDbVertex
100
AcDb2dVertex
 10
9.062117
 20
19.839122
 30
0.0
  0
VERTEX
  5
161
100
AcDbEntity
  8
___C____1
  6
____1
 62
    18
100
AcDbVertex
100
AcDb2dVertex
 10
9.160303
 20
19.900894
 30
0.0
  0
VERTEX
  5
162
100
AcDbEntity
  8
___C____1
  6
____1
 62
    18
100
AcDbVertex
100
AcDb2dVertex
 10
9.618572
 20
19.900894
 30
0.0
  0
VERTEX
  5
163
100
AcDbEntity
  8
___C____1
  6
____1
 62
    18
100
AcDbVertex
100
AcDb2dVertex
 10
10.283888
 20
19.331245
 30
0.0
  0
SEQEND
  5
164
100
AcDbEntity
  8
___C____1
  6
____1
 62
    18
  0
POLYLINE
  5
165
100
AcDbEntity
  8
___C____1
  6
____1
 62
    18
100
AcDb2dPolyline
 66
     1
 10
0.0
 20
0.0
 30
0.0
  0
VERTEX
  5
166
100
AcDbEntity
  8
___C____1
  6
____1
 62
    18
100
AcDbVertex
100
AcDb2dVertex
 10
9.550013
 20
19.839122
 30
0.0
  0
VERTEX
  5
167
100
AcDbEntity
  8
___C____1
  6
____1
 62
    18
100
AcDbVertex
100
AcDb2dVertex
 10
9.618572
 20
19.900894
 30
0.0
  0
SEQEND
  5
168
100
AcDbEntity
  8
___C____1
  6
____1
 62
    18
  0
POLYLINE
  5
169
100
AcDbEntity
  8
___C____1
  6
____1
 62
    18
100
AcDb2dPolyline
 66
     1
 10
0.0
 20
0.0
 30
0.0
 70
     1
  0
VERTEX
  5
16A
100
AcDbEntity
  8
___C____1
  6
____1
 62
    18
100
AcDbVertex
100
AcDb2dVertex
 10
9.153896
 20
19.551146
 30
0.0
  0
VERTEX
  5
16B
100
AcDbEntity
  8
___C____1
  6
____1
 62
    18
100
AcDbVertex
100
AcDb2dVertex
 10
9.17684
 20
19.485983
 30
0.0
  0
VERTEX
  5
16C
100
AcDbEntity
  8
___C____1
  6
____1
 62
    18
100
AcDbVertex
100
AcDb2dVertex
 10
9.234281
 20
19.441298
 30
0.0
  0
VERTEX
  5
16D
100
AcDbEntity
  8
___C____1
  6
____1
 62
    18
100
AcDbVertex
100
AcDb2dVertex
 10
9.309133
 20
19.42471
 30
0.0
  0
VERTEX
  5
16E
100
AcDbEntity
  8
___C____1
  6
____1
 62
    18
100
AcDbVertex
100
AcDb2dVertex
 10
9.388778
 20
19.44548
 30
0.0
  0
VERTEX
  5
16F
100
AcDbEntity
  8
___C____1
  6
____1
 62
    18
100
AcDbVertex
100
AcDb2dVertex
 10
9.445379
 20
19.500105
 30
0.0
  0
VERTEX
  5
170
100
AcDbEntity
  8
___C____1
  6
____1
 62
    18
100
AcDbVertex
100
AcDb2dVertex
 10
9.466916
 20
19.577054
 30
0.0
  0
VERTEX
  5
171
100
AcDbEntity
  8
___C____1
  6
____1
 62
    18
100
AcDbVertex
100
AcDb2dVertex
 10
9.445379
 20
19.653945
 30
0.0
  0
VERTEX
  5
172
100
AcDbEntity
  8
___C____1
  6
____1
 62
    18
100
AcDbVertex
100
AcDb2dVertex
 10
9.388778
 20
19.70868
 30
0.0
  0
VERTEX
  5
173
100
AcDbEntity
  8
___C____1
  6
____1
 62
    18
100
AcDbVertex
100
AcDb2dVertex
 10
9.309133
 20
19.729532
 30
0.0
  0
VERTEX
  5
174
100
AcDbEntity
  8
___C____1
  6
____1
 62
    18
100
AcDbVertex
100
AcDb2dVertex
 10
9.274765
 20
19.725844
 30
0.0
  0
VERTEX
  5
175
100
AcDbEntity
  8
___C____1
  6
____1
 62
    18
100
AcDbVertex
100
AcDb2dVertex
 10
9.24297
 20
19.715328
 30
0.0
  0
VERTEX
  5
176
100
AcDbEntity
  8
___C____1
  6
____1
 62
    18
100
AcDbVertex
100
AcDb2dVertex
 10
9.214666
 20
19.698801
 30
0.0
  0
VERTEX
  5
177
100
AcDbEntity
  8
___C____1
  6
____1
 62
    18
100
AcDbVertex
100
AcDb2dVertex
 10
9.198911
 20
19.682309
 30
0.0
  0
VERTEX
  5
178
100
AcDbEntity
  8
___C____1
  6
____1
 62
    18
100
AcDbVertex
100
AcDb2dVertex
 10
9.169651
 20
19.633004
 30
0.0
  0
SEQEND
  5
179
100
AcDbEntity
  8
___C____1
  6
____1
 62
    18
  0
POLYLINE
  5
17A
100
AcDbEntity
  8
___C____1
  6
____1
 62
    18
100
AcDb2dPolyline
 66
     1
 10
0.0
 20
0.0
 30
0.0
  0
VERTEX
  5
17B
100
AcDbEntity
  8
___C____1
  6
____1
 62
    18
100
AcDbVertex
100
AcDb2dVertex
 10
9.400703
 20
16.084374
 30
0.0
  0
VERTEX
  5
17C
100
AcDbEntity
  8
___C____1
  6
____1
 62
    18
100
AcDbVertex
100
AcDb2dVertex
 10
9.962669
 20
16.264379
 30
0.0
  0
SEQEND
  5
17D
100
AcDbEntity
  8
___C____1
  6
____1
 62
    18
  0
POLYLINE
  5
17E
100
AcDbEntity
  8
___C____1
  6
____1
 62
    18
100
AcDb2dPolyline
 66
     1
 10
0.0
 20
0.0
 30
0.0
  0
VERTEX
  5
17F
100
AcDbEntity
  8
___C____1
  6
____1
 62
    18
100
AcDbVertex
100
AcDb2dVertex
 10
9.400703
 20
16.293561
 30
0.0
  0
VERTEX
  5
180
100
AcDbEntity
  8
___C____1
  6
____1
 62
    18
100
AcDbVertex
100
AcDb2dVertex
 10
9.962669
 20
16.473189
 30
0.0
  0
SEQEND
  5
181
100
AcDbEntity
  8
___C____1
  6
____1
 62
    18
  0
POLYLINE
  5
182
100
AcDbEntity
  8
___C____1
  6
____1
 62
    18
100
AcDb2dPolyline
 66
     1
 10
0.0
 20
0.0
 30
0.0
  0
VERTEX
  5
183
100
AcDbEntity
  8
___C____1
  6
____1
 62
    18
100
AcDbVertex
100
AcDb2dVertex
 10
9.400703
 20
16.502678
 30
0.0
  0
VERTEX
  5
184
100
AcDbEntity
  8
___C____1
  6
____1
 62
    18
100
AcDbVertex
100
AcDb2dVertex
 10
9.962669
 20
16.682545
 30
0.0
  0
SEQEND
  5
185
100
AcDbEntity
  8
___C____1
  6
____1
 62
    18
  0
POLYLINE
  5
186
100
AcDbEntity
  8
___C____1
  6
____1
 62
    18
100
AcDb2dPolyline
 66
     1
 10
0.0
 20
0.0
 30
0.0
  0
VERTEX
  5
187
100
AcDbEntity
  8
___C____1
  6
____1
 62
    18
100
AcDbVertex
100
AcDb2dVertex
 10
9.400703
 20
16.711625
 30
0.0
  0
VERTEX
  5
188
100
AcDbEntity
  8
___C____1
  6
____1
 62
    18
100
AcDbVertex
100
AcDb2dVertex
 10
9.962669
 20
16.891559
 30
0.0
  0
SEQEND
  5
189
100
AcDbEntity
  8
___C____1
  6
____1
 62
    18
  0
POLYLINE
  5
18A
100
AcDbEntity
  8
___C____1
  6
____1
 62
    18
100
AcDb2dPolyline
 66
     1
 10
0.0
 20
0.0
 30
0.0
  0
VERTEX
  5
18B
100
AcDbEntity
  8
___C____1
  6
____1
 62
    18
100
AcDbVertex
100
AcDb2dVertex
 10
9.400703
 20
16.920671
 30
0.0
  0
VERTEX
  5
18C
100
AcDbEntity
  8
___C____1
  6
____1
 62
    18
100
AcDbVertex
100
AcDb2dVertex
 10
9.962669
 20
17.100679
 30
0.0
  0
SEQEND
  5
18D
100
AcDbEntity
  8
___C____1
  6
____1
 62
    18
  0
POLYLINE
  5
18E
100
AcDbEntity
  8
___C____1
  6
____1
 62
    18
100
AcDb2dPolyline
 66
     1
 10
0.0
 20
0.0
 30
0.0
  0
VERTEX
  5
18F
100
AcDbEntity
  8
___C____1
  6
____1
 62
    18
100
AcDbVertex
100
AcDb2dVertex
 10
9.400703
 20
17.129822
 30
0.0
  0
VERTEX
  5
190
100
AcDbEntity
  8
___C____1
  6
____1
 62
    18
100
AcDbVertex
100
AcDb2dVertex
 10
9.962669
 20
17.309623
 30
0.0
  0
SEQEND
  5
191
100
AcDbEntity
  8
___C____1
  6
____1
 62
    18
  0
POLYLINE
  5
192
100
AcDbEntity
  8
___C____1
  6
____1
 62
    18
100
AcDb2dPolyline
 66
     1
 10
0.0
 20
0.0
 30
0.0
  0
VERTEX
  5
193
100
AcDbEntity
  8
___C____1
  6
____1
 62
    18
100
AcDbVertex
100
AcDb2dVertex
 10
9.400703
 20
17.339045
 30
0.0
  0
VERTEX
  5
194
100
AcDbEntity
  8
___C____1
  6
____1
 62
    18
100
AcDbVertex
100
AcDb2dVertex
 10
9.962669
 20
17.518708
 30
0.0
  0
SEQEND
  5
195
100
AcDbEntity
  8
___C____1
  6
____1
 62
    18
  0
POLYLINE
  5
196
100
AcDbEntity
  8
___C____1
  6
____1
 62
    18
100
AcDb2dPolyline
 66
     1
 10
0.0
 20
0.0
 30
0.0
  0
VERTEX
  5
197
100
AcDbEntity
  8
___C____1
  6
____1
 62
    18
100
AcDbVertex
100
AcDb2dVertex
 10
9.400703
 20
17.548197
 30
0.0
  0
VERTEX
  5
198
100
AcDbEntity
  8
___C____1
  6
____1
 62
    18
100
AcDbVertex
100
AcDb2dVertex
 10
9.962669
 20
17.727824
 30
0.0
  0
SEQEND
  5
199
100
AcDbEntity
  8
___C____1
  6
____1
 62
    18
  0
POLYLINE
  5
19A
100
AcDbEntity
  8
___C____1
  6
____1
 62
    18
100
AcDb2dPolyline
 66
     1
 10
0.0
 20
0.0
 30
0.0
  0
VERTEX
  5
19B
100
AcDbEntity
  8
___C____1
  6
____1
 62
    18
100
AcDbVertex
100
AcDb2dVertex
 10
9.400703
 20
17.757006
 30
0.0
  0
VERTEX
  5
19C
100
AcDbEntity
  8
___C____1
  6
____1
 62
    18
100
AcDbVertex
100
AcDb2dVertex
 10
9.962669
 20
17.937047
 30
0.0
  0
SEQEND
  5
19D
100
AcDbEntity
  8
___C____1
  6
____1
 62
    18
  0
POLYLINE
  5
19E
100
AcDbEntity
  8
___C____1
  6
____1
 62
    18
100
AcDb2dPolyline
 66
     1
 10
0.0
 20
0.0
 30
0.0
  0
VERTEX
  5
19F
100
AcDbEntity
  8
___C____1
  6
____1
 62
    18
100
AcDbVertex
100
AcDb2dVertex
 10
9.400703
 20
17.966158
 30
0.0
  0
VERTEX
  5
1A0
100
AcDbEntity
  8
___C____1
  6
____1
 62
    18
100
AcDbVertex
100
AcDb2dVertex
 10
9.962669
 20
18.146026
 30
0.0
  0
SEQEND
  5
1A1
100
AcDbEntity
  8
___C____1
  6
____1
 62
    18
  0
POLYLINE
  5
1A2
100
AcDbEntity
  8
___C____1
  6
____1
 62
    18
100
AcDb2dPolyline
 66
     1
 10
0.0
 20
0.0
 30
0.0
  0
VERTEX
  5
1A3
100
AcDbEntity
  8
___C____1
  6
____1
 62
    18
100
AcDbVertex
100
AcDb2dVertex
 10
9.400703
 20
18.175345
 30
0.0
  0
VERTEX
  5
1A4
100
AcDbEntity
  8
___C____1
  6
____1
 62
    18
100
AcDbVertex
100
AcDb2dVertex
 10
9.962669
 20
18.355005
 30
0.0
  0
SEQEND
  5
1A5
100
AcDbEntity
  8
___C____1
  6
____1
 62
    18
  0
POLYLINE
  5
1A6
100
AcDbEntity
  8
___C____1
  6
____1
 62
    18
100
AcDb2dPolyline
 66
     1
 10
0.0
 20
0.0
 30
0.0
  0
VERTEX
  5
1A7
100
AcDbEntity
  8
___C____1
  6
____1
 62
    18
100
AcDbVertex
100
AcDb2dVertex
 10
9.400703
 20
18.384151
 30
0.0
  0
VERTEX
  5
1A8
100
AcDbEntity
  8
___C____1
  6
____1
 62
    18
100
AcDbVertex
100
AcDb2dVertex
 10
9.962669
 20
18.564192
 30
0.0
  0
SEQEND
  5
1A9
100
AcDbEntity
  8
___C____1
  6
____1
 62
    18
  0
POLYLINE
  5
1AA
100
AcDbEntity
  8
___C____1
  6
____1
 62
    18
100
AcDb2dPolyline
 66
     1
 10
0.0
 20
0.0
 30
0.0
  0
VERTEX
  5
1AB
100
AcDbEntity
  8
___C____1
  6
____1
 62
    18
100
AcDbVertex
100
AcDb2dVertex
 10
9.354743
 20
18.578112
 30
0.0
  0
VERTEX
  5
1AC
100
AcDbEntity
  8
___C____1
  6
____1
 62
    18
100
AcDbVertex
100
AcDb2dVertex
 10
9.935657
 20
18.773206
 30
0.0
  0
SEQEND
  5
1AD
100
AcDbEntity
  8
___C____1
  6
____1
 62
    18
  0
POLYLINE
  5
1AE
100
AcDbEntity
  8
___C____1
  6
____1
 62
    18
100
AcDb2dPolyline
 66
     1
 10
0.0
 20
0.0
 30
0.0
  0
VERTEX
  5
1AF
100
AcDbEntity
  8
___C____1
  6
____1
 62
    18
100
AcDbVertex
100
AcDb2dVertex
 10
9.213152
 20
18.671542
 30
0.0
  0
VERTEX
  5
1B0
100
AcDbEntity
  8
___C____1
  6
____1
 62
    18
100
AcDbVertex
100
AcDb2dVertex
 10
9.78924
 20
18.864985
 30
0.0
  0
SEQEND
  5
1B1
100
AcDbEntity
  8
___C____1
  6
____1
 62
    18
  0
POLYLINE
  5
1B2
100
AcDbEntity
  8
___C____1
  6
____1
 62
    18
100
AcDb2dPolyline
 66
     1
 10
0.0
 20
0.0
 30
0.0
  0
VERTEX
  5
1B3
100
AcDbEntity
  8
___C____1
  6
____1
 62
    18
100
AcDbVertex
100
AcDb2dVertex
 10
8.996867
 20
18.671542
 30
0.0
  0
VERTEX
  5
1B4
100
AcDbEntity
  8
___C____1
  6
____1
 62
    18
100
AcDbVertex
100
AcDb2dVertex
 10
9.611062
 20
18.877939
 30
0.0
  0
SEQEND
  5
1B5
100
AcDbEntity
  8
___C____1
  6
____1
 62
    18
  0
POLYLINE
  5
1B6
100
AcDbEntity
  8
___C____1
  6
____1
 62
    18
100
AcDb2dPolyline
 66
     1
 10
0.0
 20
0.0
 30
0.0
  0
VERTEX
  5
1B7
100
AcDbEntity
  8
___C____1
  6
____1
 62
    18
100
AcDbVertex
100
AcDb2dVertex
 10
8.780582
 20
18.671542
 30
0.0
  0
VERTEX
  5
1B8
100
AcDbEntity
  8
___C____1
  6
____1
 62
    18
100
AcDbVertex
100
AcDb2dVertex
 10
9.394639
 20
18.877939
 30
0.0
  0
SEQEND
  5
1B9
100
AcDbEntity
  8
___C____1
  6
____1
 62
    18
  0
POLYLINE
  5
1BA
100
AcDbEntity
  8
___C____1
  6
____1
 62
    18
100
AcDb2dPolyline
 66
     1
 10
0.0
 20
0.0
 30
0.0
  0
VERTEX
  5
1BB
100
AcDbEntity
  8
___C____1
  6
____1
 62
    18
100
AcDbVertex
100
AcDb2dVertex
 10
8.564026
 20
18.671542
 30
0.0
  0
VERTEX
  5
1BC
100
AcDbEntity
  8
___C____1
  6
____1
 62
    18
100
AcDbVertex
100
AcDb2dVertex
 10
9.178354
 20
18.877939
 30
0.0
  0
SEQEND
  5
1BD
100
AcDbEntity
  8
___C____1
  6
____1
 62
    18
  0
POLYLINE
  5
1BE
100
AcDbEntity
  8
___C____1
  6
____1
 62
    18
100
AcDb2dPolyline
 66
     1
 10
0.0
 20
0.0
 30
0.0
  0
VERTEX
  5
1BF
100
AcDbEntity
  8
___C____1
  6
____1
 62
    18
100
AcDbVertex
100
AcDb2dVertex
 10
8.347949
 20
18.671542
 30
0.0
  0
VERTEX
  5
1C0
100
AcDbEntity
  8
___C____1
  6
____1
 62
    18
100
AcDbVertex
100
AcDb2dVertex
 10
8.961865
 20
18.877939
 30
0.0
  0
SEQEND
  5
1C1
100
AcDbEntity
  8
___C____1
  6
____1
 62
    18
  0
POLYLINE
  5
1C2
100
AcDbEntity
  8
___C____1
  6
____1
 62
    18
100
AcDb2dPolyline
 66
     1
 10
0.0
 20
0.0
 30
0.0
  0
VERTEX
  5
1C3
100
AcDbEntity
  8
___C____1
  6
____1
 62
    18
100
AcDbVertex
100
AcDb2dVertex
 10
8.131251
 20
18.671542
 30
0.0
  0
VERTEX
  5
1C4
100
AcDbEntity
  8
___C____1
  6
____1
 62
    18
100
AcDbVertex
100
AcDb2dVertex
 10
8.745446
 20
18.877939
 30
0.0
  0
SEQEND
  5
1C5
100
AcDbEntity
  8
___C____1
  6
____1
 62
    18
  0
POLYLINE
  5
1C6
100
AcDbEntity
  8
___C____1
  6
____1
 62
    18
100
AcDb2dPolyline
 66
     1
 10
0.0
 20
0.0
 30
0.0
  0
VERTEX
  5
1C7
100
AcDbEntity
  8
___C____1
  6
____1
 62
    18
100
AcDbVertex
100
AcDb2dVertex
 10
7.915312
 20
18.671542
 30
0.0
  0
VERTEX
  5
1C8
100
AcDbEntity
  8
___C____1
  6
____1
 62
    18
100
AcDbVertex
100
AcDb2dVertex
 10
8.529161
 20
18.877939
 30
0.0
  0
SEQEND
  5
1C9
100
AcDbEntity
  8
___C____1
  6
____1
 62
    18
  0
POLYLINE
  5
1CA
100
AcDbEntity
  8
___C____1
  6
____1
 62
    18
100
AcDb2dPolyline
 66
     1
 10
0.0
 20
0.0
 30
0.0
  0
VERTEX
  5
1CB
100
AcDbEntity
  8
___C____1
  6
____1
 62
    18
100
AcDbVertex
100
AcDb2dVertex
 10
7.699027
 20
18.671542
 30
0.0
  0
VERTEX
  5
1CC
100
AcDbEntity
  8
___C____1
  6
____1
 62
    18
100
AcDbVertex
100
AcDb2dVertex
 10
8.312946
 20
18.877939
 30
0.0
  0
SEQEND
  5
1CD
100
AcDbEntity
  8
___C____1
  6
____1
 62
    18
  0
POLYLINE
  5
1CE
100
AcDbEntity
  8
___C____1
  6
____1
 62
    18
100
AcDb2dPolyline
 66
     1
 10
0.0
 20
0.0
 30
0.0
  0
VERTEX
  5
1CF
100
AcDbEntity
  8
___C____1
  6
____1
 62
    18
100
AcDbVertex
100
AcDb2dVertex
 10
7.4824
 20
18.671542
 30
0.0
  0
VERTEX
  5
1D0
100
AcDbEntity
  8
___C____1
  6
____1
 62
    18
100
AcDbVertex
100
AcDb2dVertex
 10
8.096732
 20
18.877939
 30
0.0
  0
SEQEND
  5
1D1
100
AcDbEntity
  8
___C____1
  6
____1
 62
    18
  0
POLYLINE
  5
1D2
100
AcDbEntity
  8
___C____1
  6
____1
 62
    18
100
AcDb2dPolyline
 66
     1
 10
0.0
 20
0.0
 30
0.0
  0
VERTEX
  5
1D3
100
AcDbEntity
  8
___C____1
  6
____1
 62
    18
100
AcDbVertex
100
AcDb2dVertex
 10
7.266185
 20
18.671542
 30
0.0
  0
VERTEX
  5
1D4
100
AcDbEntity
  8
___C____1
  6
____1
 62
    18
100
AcDbVertex
100
AcDb2dVertex
 10
7.880242
 20
18.877939
 30
0.0
  0
SEQEND
  5
1D5
100
AcDbEntity
  8
___C____1
  6
____1
 62
    18
  0
POLYLINE
  5
1D6
100
AcDbEntity
  8
___C____1
  6
____1
 62
    18
100
AcDb2dPolyline
 66
     1
 10
0.0
 20
0.0
 30
0.0
  0
VERTEX
  5
1D7
100
AcDbEntity
  8
___C____1
  6
____1
 62
    18
100
AcDbVertex
100
AcDb2dVertex
 10
9.474085
 20
15.451369
 30
0.0
  0
VERTEX
  5
1D8
100
AcDbEntity
  8
___C____1
  6
____1
 62
    18
100
AcDbVertex
100
AcDb2dVertex
 10
9.474085
 20
14.767812
 30
0.0
  0
SEQEND
  5
1D9
100
AcDbEntity
  8
___C____1
  6
____1
 62
    18
  0
POLYLINE
  5
1DA
100
AcDbEntity
  8
___C____1
  6
____1
 62
    18
100
AcDb2dPolyline
 66
     1
 10
0.0
 20
0.0
 30
0.0
  0
VERTEX
  5
1DB
100
AcDbEntity
  8
___C____1
  6
____1
 62
    18
100
AcDbVertex
100
AcDb2dVertex
 10
9.172636
 20
14.066319
 30
0.0
  0
VERTEX
  5
1DC
100
AcDbEntity
  8
___C____1
  6
____1
 62
    18
100
AcDbVertex
100
AcDb2dVertex
 10
8.38674
 20
14.066319
 30
0.0
  0
SEQEND
  5
1DD
100
AcDbEntity
  8
___C____1
  6
____1
 62
    18
  0
POLYLINE
  5
1DE
100
AcDbEntity
  8
___C____1
  6
____1
 62
    18
100
AcDb2dPolyline
 66
     1
 10
0.0
 20
0.0
 30
0.0
  0
VERTEX
  5
1DF
100
AcDbEntity
  8
___C____1
  6
____1
 62
    18
100
AcDbVertex
100
AcDb2dVertex
 10
9.772842
 20
14.066319
 30
0.0
  0
VERTEX
  5
1E0
100
AcDbEntity
  8
___C____1
  6
____1
 62
    18
100
AcDbVertex
100
AcDb2dVertex
 10
7.643013
 20
14.066319
 30
0.0
  0
VERTEX
  5
1E1
100
AcDbEntity
  8
___C____1
  6
____1
 62
    18
100
AcDbVertex
100
AcDb2dVertex
 10
7.6167
 20
14.074745
 30
0.0
  0
VERTEX
  5
1E2
100
AcDbEntity
  8
___C____1
  6
____1
 62
    18
100
AcDbVertex
100
AcDb2dVertex
 10
7.567832
 20
14.13272
 30
0.0
  0
VERTEX
  5
1E3
100
AcDbEntity
  8
___C____1
  6
____1
 62
    18
100
AcDbVertex
100
AcDb2dVertex
 10
7.541518
 20
14.289285
 30
0.0
  0
VERTEX
  5
1E4
100
AcDbEntity
  8
___C____1
  6
____1
 62
    18
100
AcDbVertex
100
AcDb2dVertex
 10
7.541518
 20
14.371624
 30
0.0
  0
SEQEND
  5
1E5
100
AcDbEntity
  8
___C____1
  6
____1
 62
    18
  0
POLYLINE
  5
1E6
100
AcDbEntity
  8
___C____1
  6
____1
 62
    18
100
AcDb2dPolyline
 66
     1
 10
0.0
 20
0.0
 30
0.0
 70
     1
  0
VERTEX
  5
1E7
100
AcDbEntity
  8
___C____1
  6
____1
 62
    18
100
AcDbVertex
100
AcDb2dVertex
 10
7.807549
 20
15.042249
 30
0.0
  0
VERTEX
  5
1E8
100
AcDbEntity
  8
___C____1
  6
____1
 62
    18
100
AcDbVertex
100
AcDb2dVertex
 10
7.786516
 20
14.964534
 30
0.0
  0
VERTEX
  5
1E9
100
AcDbEntity
  8
___C____1
  6
____1
 62
    18
100
AcDbVertex
100
AcDb2dVertex
 10
7.731246
 20
14.909281
 30
0.0
  0
VERTEX
  5
1EA
100
AcDbEntity
  8
___C____1
  6
____1
 62
    18
100
AcDbVertex
100
AcDb2dVertex
 10
7.653483
 20
14.88825
 30
0.0
  0
VERTEX
  5
1EB
100
AcDbEntity
  8
___C____1
  6
____1
 62
    18
100
AcDbVertex
100
AcDb2dVertex
 10
7.575771
 20
14.909281
 30
0.0
  0
VERTEX
  5
1EC
100
AcDbEntity
  8
___C____1
  6
____1
 62
    18
100
AcDbVertex
100
AcDb2dVertex
 10
7.520519
 20
14.964534
 30
0.0
  0
VERTEX
  5
1ED
100
AcDbEntity
  8
___C____1
  6
____1
 62
    18
100
AcDbVertex
100
AcDb2dVertex
 10
7.499488
 20
15.042249
 30
0.0
  0
VERTEX
  5
1EE
100
AcDbEntity
  8
___C____1
  6
____1
 62
    18
100
AcDbVertex
100
AcDb2dVertex
 10
7.520519
 20
15.12001
 30
0.0
  0
VERTEX
  5
1EF
100
AcDbEntity
  8
___C____1
  6
____1
 62
    18
100
AcDbVertex
100
AcDb2dVertex
 10
7.575771
 20
15.175278
 30
0.0
  0
VERTEX
  5
1F0
100
AcDbEntity
  8
___C____1
  6
____1
 62
    18
100
AcDbVertex
100
AcDb2dVertex
 10
7.653483
 20
15.196311
 30
0.0
  0
VERTEX
  5
1F1
100
AcDbEntity
  8
___C____1
  6
____1
 62
    18
100
AcDbVertex
100
AcDb2dVertex
 10
7.731246
 20
15.175278
 30
0.0
  0
VERTEX
  5
1F2
100
AcDbEntity
  8
___C____1
  6
____1
 62
    18
100
AcDbVertex
100
AcDb2dVertex
 10
7.786516
 20
15.12001
 30
0.0
  0
SEQEND
  5
1F3
100
AcDbEntity
  8
___C____1
  6
____1
 62
    18
  0
POLYLINE
  5
1F4
100
AcDbEntity
  8
___C____1
  6
____1
 62
    18
100
AcDb2dPolyline
 66
     1
 10
0.0
 20
0.0
 30
0.0
 70
     1
  0
VERTEX
  5
1F5
100
AcDbEntity
  8
___C____1
  6
____1
 62
    18
100
AcDbVertex
100
AcDb2dVertex
 10
8.553897
 20
15.042249
 30
0.0
  0
VERTEX
  5
1F6
100
AcDbEntity
  8
___C____1
  6
____1
 62
    18
100
AcDbVertex
100
AcDb2dVertex
 10
8.516637
 20
14.904505
 30
0.0
  0
VERTEX
  5
1F7
100
AcDbEntity
  8
___C____1
  6
____1
 62
    18
100
AcDbVertex
100
AcDb2dVertex
 10
8.418696
 20
14.806633
 30
0.0
  0
VERTEX
  5
1F8
100
AcDbEntity
  8
___C____1
  6
____1
 62
    18
100
AcDbVertex
100
AcDb2dVertex
 10
8.280836
 20
14.769396
 30
0.0
  0
VERTEX
  5
1F9
100
AcDbEntity
  8
___C____1
  6
____1
 62
    18
100
AcDbVertex
100
AcDb2dVertex
 10
8.143192
 20
14.806633
 30
0.0
  0
VERTEX
  5
1FA
100
AcDbEntity
  8
___C____1
  6
____1
 62
    18
100
AcDbVertex
100
AcDb2dVertex
 10
8.045357
 20
14.904505
 30
0.0
  0
VERTEX
  5
1FB
100
AcDbEntity
  8
___C____1
  6
____1
 62
    18
100
AcDbVertex
100
AcDb2dVertex
 10
8.008124
 20
15.042249
 30
0.0
  0
VERTEX
  5
1FC
100
AcDbEntity
  8
___C____1
  6
____1
 62
    18
100
AcDbVertex
100
AcDb2dVertex
 10
8.045357
 20
15.180004
 30
0.0
  0
VERTEX
  5
1FD
100
AcDbEntity
  8
___C____1
  6
____1
 62
    18
100
AcDbVertex
100
AcDb2dVertex
 10
8.143192
 20
15.2779
 30
0.0
  0
VERTEX
  5
1FE
100
AcDbEntity
  8
___C____1
  6
____1
 62
    18
100
AcDbVertex
100
AcDb2dVertex
 10
8.280836
 20
15.315151
 30
0.0
  0
VERTEX
  5
1FF
100
AcDbEntity
  8
___C____1
  6
____1
 62
    18
100
AcDbVertex
100
AcDb2dVertex
 10
8.418696
 20
15.2779
 30
0.0
  0
VERTEX
  5
200
100
AcDbEntity
  8
___C____1
  6
____1
 62
    18
100
AcDbVertex
100
AcDb2dVertex
 10
8.516637
 20
15.180004
 30
0.0
  0
SEQEND
  5
201
100
AcDbEntity
  8
___C____1
  6
____1
 62
    18
  0
POLYLINE
  5
202
100
AcDbEntity
  8
___C____1
  6
____1
 62
    18
100
AcDb2dPolyline
 66
     1
 10
0.0
 20
0.0
 30
0.0
 70
     1
  0
VERTEX
  5
203
100
AcDbEntity
  8
___C____1
  6
____1
 62
    18
100
AcDbVertex
100
AcDb2dVertex
 10
9.059429
 20
15.042249
 30
0.0
  0
VERTEX
  5
204
100
AcDbEntity
  8
___C____1
  6
____1
 62
    18
100
AcDbVertex
100
AcDb2dVertex
 10
9.038397
 20
14.964534
 30
0.0
  0
VERTEX
  5
205
100
AcDbEntity
  8
___C____1
  6
____1
 62
    18
100
AcDbVertex
100
AcDb2dVertex
 10
8.983129
 20
14.909281
 30
0.0
  0
VERTEX
  5
206
100
AcDbEntity
  8
___C____1
  6
____1
 62
    18
100
AcDbVertex
100
AcDb2dVertex
 10
8.905367
 20
14.88825
 30
0.0
  0
VERTEX
  5
207
100
AcDbEntity
  8
___C____1
  6
____1
 62
    18
100
AcDbVertex
100
AcDb2dVertex
 10
8.827652
 20
14.909281
 30
0.0
  0
VERTEX
  5
208
100
AcDbEntity
  8
___C____1
  6
____1
 62
    18
100
AcDbVertex
100
AcDb2dVertex
 10
8.772399
 20
14.964534
 30
0.0
  0
VERTEX
  5
209
100
AcDbEntity
  8
___C____1
  6
____1
 62
    18
100
AcDbVertex
100
AcDb2dVertex
 10
8.751369
 20
15.042249
 30
0.0
  0
VERTEX
  5
20A
100
AcDbEntity
  8
___C____1
  6
____1
 62
    18
100
AcDbVertex
100
AcDb2dVertex
 10
8.772399
 20
15.12001
 30
0.0
  0
VERTEX
  5
20B
100
AcDbEntity
  8
___C____1
  6
____1
 62
    18
100
AcDbVertex
100
AcDb2dVertex
 10
8.827652
 20
15.175278
 30
0.0
  0
VERTEX
  5
20C
100
AcDbEntity
  8
___C____1
  6
____1
 62
    18
100
AcDbVertex
100
AcDb2dVertex
 10
8.905367
 20
15.196311
 30
0.0
  0
VERTEX
  5
20D
100
AcDbEntity
  8
___C____1
  6
____1
 62
    18
100
AcDbVertex
100
AcDb2dVertex
 10
8.983129
 20
15.175278
 30
0.0
  0
VERTEX
  5
20E
100
AcDbEntity
  8
___C____1
  6
____1
 62
    18
100
AcDbVertex
100
AcDb2dVertex
 10
9.038397
 20
15.12001
 30
0.0
  0
SEQEND
  5
20F
100
AcDbEntity
  8
___C____1
  6
____1
 62
    18
  0
POLYLINE
  5
210
100
AcDbEntity
  8
___C____1
  6
____1
 62
    18
100
AcDb2dPolyline
 66
     1
 10
0.0
 20
0.0
 30
0.0
  0
VERTEX
  5
211
100
AcDbEntity
  8
___C____1
  6
____1
 62
    18
100
AcDbVertex
100
AcDb2dVertex
 10
10.813006
 20
12.500589
 30
0.0
  0
VERTEX
  5
212
100
AcDbEntity
  8
___C____1
  6
____1
 62
    18
100
AcDbVertex
100
AcDb2dVertex
 10
10.471479
 20
12.675342
 30
0.0
  0
VERTEX
  5
213
100
AcDbEntity
  8
___C____1
  6
____1
 62
    18
100
AcDbVertex
100
AcDb2dVertex
 10
10.197887
 20
12.873904
 30
0.0
  0
VERTEX
  5
214
100
AcDbEntity
  8
___C____1
  6
____1
 62
    18
100
AcDbVertex
100
AcDb2dVertex
 10
9.984942
 20
13.08884
 30
0.0
  0
VERTEX
  5
215
100
AcDbEntity
  8
___C____1
  6
____1
 62
    18
100
AcDbVertex
100
AcDb2dVertex
 10
9.825355
 20
13.312717
 30
0.0
  0
VERTEX
  5
216
100
AcDbEntity
  8
___C____1
  6
____1
 62
    18
100
AcDbVertex
100
AcDb2dVertex
 10
9.711838
 20
13.538099
 30
0.0
  0
VERTEX
  5
217
100
AcDbEntity
  8
___C____1
  6
____1
 62
    18
100
AcDbVertex
100
AcDb2dVertex
 10
9.637103
 20
13.757551
 30
0.0
  0
VERTEX
  5
218
100
AcDbEntity
  8
___C____1
  6
____1
 62
    18
100
AcDbVertex
100
AcDb2dVertex
 10
9.593862
 20
13.96364
 30
0.0
  0
VERTEX
  5
219
100
AcDbEntity
  8
___C____1
  6
____1
 62
    18
100
AcDbVertex
100
AcDb2dVertex
 10
9.574826
 20
14.148929
 30
0.0
  0
VERTEX
  5
21A
100
AcDbEntity
  8
___C____1
  6
____1
 62
    18
100
AcDbVertex
100
AcDb2dVertex
 10
9.572707
 20
14.305985
 30
0.0
  0
VERTEX
  5
21B
100
AcDbEntity
  8
___C____1
  6
____1
 62
    18
100
AcDbVertex
100
AcDb2dVertex
 10
9.580217
 20
14.427373
 30
0.0
  0
VERTEX
  5
21C
100
AcDbEntity
  8
___C____1
  6
____1
 62
    18
100
AcDbVertex
100
AcDb2dVertex
 10
9.590068
 20
14.505658
 30
0.0
  0
VERTEX
  5
21D
100
AcDbEntity
  8
___C____1
  6
____1
 62
    18
100
AcDbVertex
100
AcDb2dVertex
 10
9.594971
 20
14.533405
 30
0.0
  0
VERTEX
  5
21E
100
AcDbEntity
  8
___C____1
  6
____1
 62
    18
100
AcDbVertex
100
AcDb2dVertex
 10
9.71324
 20
14.617052
 30
0.0
  0
VERTEX
  5
21F
100
AcDbEntity
  8
___C____1
  6
____1
 62
    18
100
AcDbVertex
100
AcDb2dVertex
 10
9.707432
 20
14.583786
 30
0.0
  0
VERTEX
  5
220
100
AcDbEntity
  8
___C____1
  6
____1
 62
    18
100
AcDbVertex
100
AcDb2dVertex
 10
9.696176
 20
14.490592
 30
0.0
  0
VERTEX
  5
221
100
AcDbEntity
  8
___C____1
  6
____1
 62
    18
100
AcDbVertex
100
AcDb2dVertex
 10
9.688724
 20
14.347373
 30
0.0
  0
VERTEX
  5
222
100
AcDbEntity
  8
___C____1
  6
____1
 62
    18
100
AcDbVertex
100
AcDb2dVertex
 10
9.694327
 20
14.164033
 30
0.0
  0
VERTEX
  5
223
100
AcDbEntity
  8
___C____1
  6
____1
 62
    18
100
AcDbVertex
100
AcDb2dVertex
 10
9.722237
 20
13.950477
 30
0.0
  0
VERTEX
  5
224
100
AcDbEntity
  8
___C____1
  6
____1
 62
    18
100
AcDbVertex
100
AcDb2dVertex
 10
9.781706
 20
13.716607
 30
0.0
  0
VERTEX
  5
225
100
AcDbEntity
  8
___C____1
  6
____1
 62
    18
100
AcDbVertex
100
AcDb2dVertex
 10
9.881987
 20
13.472328
 30
0.0
  0
VERTEX
  5
226
100
AcDbEntity
  8
___C____1
  6
____1
 62
    18
100
AcDbVertex
100
AcDb2dVertex
 10
10.03233
 20
13.227543
 30
0.0
  0
VERTEX
  5
227
100
AcDbEntity
  8
___C____1
  6
____1
 62
    18
100
AcDbVertex
100
AcDb2dVertex
 10
10.241988
 20
12.992157
 30
0.0
  0
VERTEX
  5
228
100
AcDbEntity
  8
___C____1
  6
____1
 62
    18
100
AcDbVertex
100
AcDb2dVertex
 10
10.520213
 20
12.776074
 30
0.0
  0
VERTEX
  5
229
100
AcDbEntity
  8
___C____1
  6
____1
 62
    18
100
AcDbVertex
100
AcDb2dVertex
 10
10.876256
 20
12.589197
 30
0.0
  0
SEQEND
  5
22A
100
AcDbEntity
  8
___C____1
  6
____1
 62
    18
  0
ENDSEC
  0
SECTION
  2
OBJECTS
  0
DICTIONARY
  5
19
100
AcDbDictionary
  3
ACAD_GROUP
350
1A
  3
ACAD_MLINESTYLE
350
1B
  0
DICTIONARY
  5
1A
102
{ACAD_REACTORS
330
19
102
}
100
AcDbDictionary
  0
DICTIONARY
  5
1B
102
{ACAD_REACTORS
330
19
102
}
100
AcDbDictionary
  3
STANDARD
350
1C
  0
MLINESTYLE
  5
1C
102
{ACAD_REACTORS
330
1B
102
}
100
AcDbMlineStyle
  2
STANDARD
 70
     0
  3

 62
     0
 51
90.0
 52
90.0
 71
     2
 49
0.5
 62
   256
  6
BYLAYER
 49
-0.5
 62
   256
  6
BYLAYER
  0
DICTIONARY
  5
22
102
{ACAD_REACTORS
330
19
102
}
100
AcDbDictionary
  0
ENDSEC
  0
EOF
