  0
SECTION
  2
HEADER
  9
$ACADVER
  1
AC1012
  9
$DWGCODEPAGE
  3
ansi_1252
  9
$INSBASE
 10
0.0
 20
0.0
 30
0.0
  9
$EXTMIN
 10
7.71945
 20
13.393283
 30
0.0
  9
$EXTMAX
 10
12.673912
 20
18.981619
 30
0.0
  9
$LIMMIN
 10
7.71945
 20
13.393283
  9
$LIMMAX
 10
12.673912
 20
18.981619
  9
$ORTHOMODE
 70
     0
  9
$REGENMODE
 70
     1
  9
$FILLMODE
 70
     1
  9
$QTEXTMODE
 70
     0
  9
$MIRRTEXT
 70
     1
  9
$DRAGMODE
 70
     2
  9
$LTSCALE
 40
1.0
  9
$OSMODE
 70
     0
  9
$ATTMODE
 70
     1
  9
$TEXTSIZE
 40
0.2
  9
$TRACEWID
 40
0.05
  9
$TEXTSTYLE
  7
STANDARD
  9
$CLAYER
  8
0
  9
$CELTYPE
  6
CONTINUOUS
  9
$CECOLOR
 62
   256
  9
$CELTSCALE
 40
1.0
  9
$DELOBJ
 70
     1
  9
$DISPSILH
 70
     0
  9
$DIMSCALE
 40
1.0
  9
$DIMASZ
 40
0.18
  9
$DIMEXO
 40
0.0625
  9
$DIMDLI
 40
0.38
  9
$DIMRND
 40
0.0
  9
$DIMDLE
 40
0.0
  9
$DIMEXE
 40
0.18
  9
$DIMTP
 40
0.0
  9
$DIMTM
 40
0.0
  9
$DIMTXT
 40
0.18
  9
$DIMCEN
 40
0.09
  9
$DIMTSZ
 40
0.0
  9
$DIMTOL
 70
     0
  9
$DIMLIM
 70
     0
  9
$DIMTIH
 70
     1
  9
$DIMTOH
 70
     1
  9
$DIMSE1
 70
     0
  9
$DIMSE2
 70
     0
  9
$DIMTAD
 70
     0
  9
$DIMZIN
 70
     0
  9
$DIMBLK
  1

  9
$DIMASO
 70
     1
  9
$DIMSHO
 70
     1
  9
$DIMPOST
  1

  9
$DIMAPOST
  1

  9
$DIMALT
 70
     0
  9
$DIMALTD
 70
     2
  9
$DIMALTF
 40
25.4
  9
$DIMLFAC
 40
1.0
  9
$DIMTOFL
 70
     0
  9
$DIMTVP
 40
0.0
  9
$DIMTIX
 70
     0
  9
$DIMSOXD
 70
     0
  9
$DIMSAH
 70
     0
  9
$DIMBLK1
  1

  9
$DIMBLK2
  1

  9
$DIMSTYLE
  2
STANDARD
  9
$DIMCLRD
 70
     0
  9
$DIMCLRE
 70
     0
  9
$DIMCLRT
 70
     0
  9
$DIMTFAC
 40
1.0
  9
$DIMGAP
 40
0.09
  9
$DIMJUST
 70
     0
  9
$DIMSD1
 70
     0
  9
$DIMSD2
 70
     0
  9
$DIMTOLJ
 70
     1
  9
$DIMTZIN
 70
     0
  9
$DIMALTZ
 70
     0
  9
$DIMALTTZ
 70
     0
  9
$DIMFIT
 70
     3
  9
$DIMUPT
 70
     0
  9
$DIMUNIT
 70
     2
  9
$DIMDEC
 70
     4
  9
$DIMTDEC
 70
     4
  9
$DIMALTU
 70
     2
  9
$DIMALTTD
 70
     2
  9
$DIMTXSTY
  7
STANDARD
  9
$DIMAUNIT
 70
     0
  9
$LUNITS
 70
     2
  9
$LUPREC
 70
     0
  9
$SKETCHINC
 40
24.0
  9
$FILLETRAD
 40
50.0
  9
$AUNITS
 70
     2
  9
$AUPREC
 70
     0
  9
$MENU
  1
acad
  9
$ELEVATION
 40
0.0
  9
$PELEVATION
 40
0.0
  9
$THICKNESS
 40
200.0
  9
$LIMCHECK
 70
     0
  9
$BLIPMODE
 70
     1
  9
$CHAMFERA
 40
0.0
  9
$CHAMFERB
 40
0.0
  9
$CHAMFERC
 40
0.0
  9
$CHAMFERD
 40
0.0
  9
$SKPOLY
 70
     0
  9
$TDCREATE
 40
2453203.772060185
  9
$TDUPDATE
 40
2453203.772060185
  9
$TDINDWG
 40
0.0000000000
  9
$TDUSRTIMER
 40
0.0000000000
  9
$USRTIMER
 70
     1
  9
$ANGBASE
 50
0.0
  9
$ANGDIR
 70
     0
  9
$PDMODE
 70
     0
  9
$PDSIZE
 40
0.0
  9
$PLINEWID
 40
0.0
  9
$COORDS
 70
     0
  9
$SPLFRAME
 70
     0
  9
$SPLINETYPE
 70
     6
  9
$SPLINESEGS
 70
     8
  9
$ATTDIA
 70
     0
  9
$ATTREQ
 70
     1
  9
$HANDLING
 70
     1
  9
$HANDSEED
  5
286
  9
$SURFTAB1
 70
     6
  9
$SURFTAB2
 70
     6
  9
$SURFTYPE
 70
     6
  9
$SURFU
 70
     6
  9
$SURFV
 70
     6
  9
$UCSNAME
  2

  9
$UCSORG
 10
0.0
 20
0.0
 30
0.0
  9
$UCSXDIR
 10
1.0
 20
0.0
 30
0.0
  9
$UCSYDIR
 10
0.0
 20
1.0
 30
0.0
  9
$PUCSNAME
  2

  9
$PUCSORG
 10
0.0
 20
0.0
 30
0.0
  9
$PUCSXDIR
 10
1.0
 20
0.0
 30
0.0
  9
$PUCSYDIR
 10
0.0
 20
1.0
 30
0.0
  9
$USERI1
 70
     0
  9
$USERI2
 70
     0
  9
$USERI3
 70
     0
  9
$USERI4
 70
     0
  9
$USERI5
 70
     0
  9
$USERR1
 40
0.0
  9
$USERR2
 40
0.0
  9
$USERR3
 40
0.0
  9
$USERR4
 40
0.0
  9
$USERR5
 40
0.0
  9
$WORLDVIEW
 70
     1
  9
$SHADEDGE
 70
     3
  9
$SHADEDIF
 70
    70
  9
$TILEMODE
 70
     1
  9
$MAXACTVP
 70
    16
  9
$PINSBASE
 10
0.0
 20
0.0
 30
0.0
  9
$PLIMCHECK
 70
     0
  9
$PEXTMIN
 10
1.797693E+308
 20
1.797693E+308
 30
1.000000E+20
  9
$PEXTMAX
 10
-1.797693E+308
 20
-1.797693E+308
 30
-1.000000E+20
  9
$PLIMMIN
 10
1.797693E+308
 20
1.797693E+308
  9
$PLIMMAX
 10
-1.797693E+308
 20
-1.797693E+308
  9
$UNITMODE
 70
     0
  9
$VISRETAIN
 70
     0
  9
$PLINEGEN
 70
     1
  9
$PSLTSCALE
 70
     0
  9
$TREEDEPTH
 70
  3020
  9
$PICKSTYLE
 70
     1
  9
$CMLSTYLE
  2
STANDARD
  9
$CMLJUST
 70
     0
  9
$CMLSCALE
 40
1.0
  9
$SAVEIMAGES
 70
     0
  0
ENDSEC
  0
SECTION
  2
CLASSES
  0
CLASS
  1
LWPOLYLINE
  2
AcDbPolyline
  3
"AutoCAD"
 90
        0
280
     0
281
     1
  0
CLASS
  1
IMAGE
  2
AcDbRasterImage
  3
ISM
 90
      127
280
     0
281
     1
  0
CLASS
  1
OLE2FRAME
  2
AcDbOle2Frame
  3
""
 90
        0
280
     0
281
     1
  0
CLASS
  1
HATCH
  2
AcDbHatch
  3
"ACAD_SEDONA"
 90
        0
280
     0
281
     1
  0
CLASS
  1
DICTIONARYVAR
  2
AcDbDictionaryVar
  3
"AutoCAD"
 90
        0
280
     0
281
     0
  0
CLASS
  1
RASTERVARIABLES
  2
AcDbRasterVariables
  3
ISM
 90
        0
280
     0
281
     0
  0
CLASS
  1
IMAGEDEF
  2
AcDbRasterImageDef
  3
ISM
 90
        0
280
     0
281
     0
  0
CLASS
  1
IMAGEDEF_REACTOR
  2
AcDbRasterImageDefReactor
  3
ISM
 90
        1
280
     0
281
     0
  0
CLASS
  1
IDBUFFER
  2
AcDbIdBuffer
  3
"Acad"
 90
        0
280
     0
281
     0
  0
CLASS
  1
SPATIAL_FILTER
  2
AcDbSpatialFilter
  3
"Acad"
 90
        0
280
     0
281
     0
  0
CLASS
  1
XRECORD
  2
AcDbXrecord
  3
"<Built In>"
 90
        0
280
     0
281
     0
  0
CLASS
  1
SORTENTSTABLE
  2
AcDbSortentsTable
  3
"AutoCAD"
 90
        0
280
     0
281
     0
  0
CLASS
  1
LAYER_INDEX
  2
AcDbLayerIndex
  3
"Acad"
 90
        0
280
     0
281
     0
  0
CLASS
  1
SPATIAL_INDEX
  2
AcDbSpatialIndex
  3
"Acad"
 90
        0
280
     0
281
     0
  0
CLASS
  1
OBJECT_PTR
  2
CAseDLPNTableRecord
  3
"ASE-LPNTableRecord"
 90
        1
280
     0
281
     0
  0
CLASS
  1
LAYOUT
  2
AcDbLayout
  3
"AutoCAD 2000"
 90
        1
280
     0
281
     0
  0
CLASS
  1
PLOTSETTINGS
  2
AcDbPlotSettings
  3
"AutoCAD 2000"
 90
        1
280
     0
281
     0
  0
CLASS
  1
ACDBDICTIONARYWDFLT
  2
AcDbDictionaryWithDefault
  3
"AutoCAD 2000"
 90
        1
280
     0
281
     0
  0
CLASS
  1
ACDBPLACEHOLDER
  2
AcDbPlaceHolder
  3
"AutoCAD 2000"
 90
        1
280
     0
281
     0
  0
CLASS
  1
VBA_PROJECT
  2
AcDbVbaProject
  3
"acadvba"
 90
        1
280
     0
281
     0
  0
CLASS
  1
WIPEOUT
  2
AcDbWipeout
  3
WipeOut|AutoCAD Express Tool|expresstools@autodesk.com
 90
      127
280
     0
281
     1
  0
CLASS
  1
WIPEOUTVARIABLES
  2
AcDbWipeoutVariables
  3
WipeOut|AutoCAD Express Tool|expresstools@autodesk.com
 90
        0
280
     0
281
     0
  0
CLASS
  1
RTEXT
  2
RText
  3
RText|AutoCAD Express Tool|expresstools@autodesk.com
 90
        0
280
     0
281
     1
  0
CLASS
  1
ARCALIGNEDTEXT
  2
AcDbArcAlignedText
  3
ATEXT|AutoCAD Express Tool|expresstools@autodesk.com
 90
        0
280
     0
281
     1
  0
ENDSEC
  0
SECTION
  2
TABLES
  0
TABLE
  2
VPORT
  5
7
100
AcDbSymbolTable
 70
     1
  0
VPORT
  5
15
100
AcDbSymbolTableRecord
100
AcDbViewportTableRecord
  2
*ACTIVE
 70
     0
 10
0.0
 20
0.0
 11
1.0
 21
1.0
 12
6.591288
 22
4.579184
 13
0.0
 23
0.0
 14
1.0
 24
1.0
 15
0.0
 25
0.0
 16
0.0
 26
0.0
 36
1.0
 17
0.0
 27
0.0
 37
0.0
 40
9.158369
 41
0.688564
 42
50.0
 43
0.0
 44
0.0
 50
0.0
 51
0.0
 71
     0
 72
   100
 73
     1
 74
     1
 75
     0
 76
     0
 77
     0
 78
     0
  0
ENDTAB
  0
TABLE
  2
LTYPE
  5
4
100
AcDbSymbolTable
 70
     4
  0
LTYPE
  5
11
100
AcDbSymbolTableRecord
100
AcDbLinetypeTableRecord
  2
BYBLOCK
 70
    64
  3

 72
    65
 73
     0
 40
0.0
  0
LTYPE
  5
12
100
AcDbSymbolTableRecord
100
AcDbLinetypeTableRecord
  2
BYLAYER
 70
    64
  3

 72
    65
 73
     0
 40
0.0
  0
LTYPE
  5
13
100
AcDbSymbolTableRecord
100
AcDbLinetypeTableRecord
  2
CONTINUOUS
 70
    64
  3
Solid line
 72
    65
 73
     0
 40
0.0
  0
LTYPE
  5
24
100
AcDbSymbolTableRecord
100
AcDbLinetypeTableRecord
  2
____1
 70
    64
  3

 72
    65
 73
     0
 40
0.0
  0
ENDTAB
  0
TABLE
  2
LAYER
  5
2
100
AcDbSymbolTable
 70
     3
  0
LAYER
  5
14
100
AcDbSymbolTableRecord
100
AcDbLayerTableRecord
  2
0
 70
     0
 62
     7
  6
CONTINUOUS
  0
LAYER
  5
25
100
AcDbSymbolTableRecord
100
AcDbLayerTableRecord
  2
___C__1
 70
    64
 62
     1
  6
CONTINUOUS
  0
LAYER
  5
26
100
AcDbSymbolTableRecord
100
AcDbLayerTableRecord
  2
___C____1
 70
    64
 62
     1
  6
CONTINUOUS
  0
ENDTAB
  0
TABLE
  2
STYLE
  5
3
100
AcDbSymbolTable
 70
     1
  0
STYLE
  5
17
100
AcDbSymbolTableRecord
100
AcDbTextStyleTableRecord
  2
STANDARD
 70
     0
 40
0.0
 41
1.0
 50
0.0
 71
     0
 42
0.0
  3
txt
  4

  0
ENDTAB
  0
TABLE
  2
VIEW
  5
5
100
AcDbSymbolTable
 70
     0
  0
ENDTAB
  0
TABLE
  2
UCS
  5
6
100
AcDbSymbolTable
 70
     0
  0
ENDTAB
  0
TABLE
  2
APPID
  5
8
100
AcDbSymbolTable
 70
     1
  0
APPID
  5
16
100
AcDbSymbolTableRecord
100
AcDbRegAppTableRecord
  2
ACAD
 70
     0
  0
ENDTAB
  0
TABLE
  2
DIMSTYLE
  5
9
100
AcDbSymbolTable
 70
     1
  0
DIMSTYLE
105
18
100
AcDbSymbolTableRecord
100
AcDbDimStyleTableRecord
  2
STANDARD
 70
     0
  3

  4

  5

  6

  7

 40
1.0
 41
0.18
 42
0.0625
 43
0.38
 44
0.18
 45
0.0
 46
0.0
 47
0.0
 48
0.0
 71
     0
 72
     0
 73
     1
 74
     1
 75
     0
 76
     0
 77
     0
 78
     0
140
0.18
141
0.09
142
0.0
143
25.4
144
1.0
145
0.0
146
1.0
147
0.09
170
     0
171
     2
172
     0
173
     0
174
     0
175
     0
176
     0
177
     0
178
     0
270
     2
271
     4
272
     4
273
     2
274
     2
275
     0
280
     0
281
     0
282
     0
283
     1
284
     0
285
     0
286
     0
287
     0
288
     0
340
17
  0
ENDTAB
  0
TABLE
  2
BLOCK_RECORD
  5
1
100
AcDbSymbolTable
 70
     0
  0
BLOCK_RECORD
  5
A
100
AcDbSymbolTableRecord
100
AcDbBlockTableRecord
  2
*MODEL_SPACE
  0
BLOCK_RECORD
  5
B
100
AcDbSymbolTableRecord
100
AcDbBlockTableRecord
  2
*PAPER_SPACE
  0
ENDTAB
  0
ENDSEC
  0
SECTION
  2
BLOCKS
  0
BLOCK
  5
D
100
AcDbEntity
  8
0
100
AcDbBlockBegin
  2
*MODEL_SPACE
 70
     0
 10
0.0
 20
0.0
 30
0.0
  3
*MODEL_SPACE
  1

  0
ENDBLK
  5
E
100
AcDbEntity
  8
0
100
AcDbBlockEnd
  0
BLOCK
  5
F
100
AcDbEntity
 67
     1
  8
0
100
AcDbBlockBegin
  2
*PAPER_SPACE
 70
     0
 10
0.0
 20
0.0
 30
0.0
  3
*PAPER_SPACE
  1

  0
ENDBLK
  5
10
100
AcDbEntity
 67
     1
  8
0
100
AcDbBlockEnd
  0
ENDSEC
  0
SECTION
  2
ENTITIES
  0
MTEXT
  5
27
100
AcDbEntity
  8
___C____1
  6
____1
 62
    18
100
AcDbMText
 10
11.015162
 20
13.389975
 30
0.0
 40
0.423334
 41
0.0
 71
     7
 72
     1
  1
{YZ1403}
  0
POLYLINE
  5
28
100
AcDbEntity
  8
___C____1
  6
____1
 62
    18
100
AcDb2dPolyline
 66
     1
 10
0.0
 20
0.0
 30
0.0
  0
VERTEX
  5
29
100
AcDbEntity
  8
___C____1
  6
____1
 62
    18
100
AcDbVertex
100
AcDb2dVertex
 10
11.872788
 20
17.381008
 30
0.0
  0
VERTEX
  5
2A
100
AcDbEntity
  8
___C____1
  6
____1
 62
    18
100
AcDbVertex
100
AcDb2dVertex
 10
11.954368
 20
17.713677
 30
0.0
  0
VERTEX
  5
2B
100
AcDbEntity
  8
___C____1
  6
____1
 62
    18
100
AcDbVertex
100
AcDb2dVertex
 10
11.952123
 20
17.975198
 30
0.0
  0
VERTEX
  5
2C
100
AcDbEntity
  8
___C____1
  6
____1
 62
    18
100
AcDbVertex
100
AcDb2dVertex
 10
11.884699
 20
18.173212
 30
0.0
  0
VERTEX
  5
2D
100
AcDbEntity
  8
___C____1
  6
____1
 62
    18
100
AcDbVertex
100
AcDb2dVertex
 10
11.77074
 20
18.315362
 30
0.0
  0
VERTEX
  5
2E
100
AcDbEntity
  8
___C____1
  6
____1
 62
    18
100
AcDbVertex
100
AcDb2dVertex
 10
11.628894
 20
18.409292
 30
0.0
  0
VERTEX
  5
2F
100
AcDbEntity
  8
___C____1
  6
____1
 62
    18
100
AcDbVertex
100
AcDb2dVertex
 10
11.477807
 20
18.462643
 30
0.0
  0
VERTEX
  5
30
100
AcDbEntity
  8
___C____1
  6
____1
 62
    18
100
AcDbVertex
100
AcDb2dVertex
 10
11.336124
 20
18.48306
 30
0.0
  0
VERTEX
  5
31
100
AcDbEntity
  8
___C____1
  6
____1
 62
    18
100
AcDbVertex
100
AcDb2dVertex
 10
11.22249
 20
18.478184
 30
0.0
  0
VERTEX
  5
32
100
AcDbEntity
  8
___C____1
  6
____1
 62
    18
100
AcDbVertex
100
AcDb2dVertex
 10
11.157738
 20
18.470435
 30
0.0
  0
VERTEX
  5
33
100
AcDbEntity
  8
___C____1
  6
____1
 62
    18
100
AcDbVertex
100
AcDb2dVertex
 10
11.076343
 20
18.457387
 30
0.0
  0
VERTEX
  5
34
100
AcDbEntity
  8
___C____1
  6
____1
 62
    18
100
AcDbVertex
100
AcDb2dVertex
 10
10.972928
 20
18.426364
 30
0.0
  0
VERTEX
  5
35
100
AcDbEntity
  8
___C____1
  6
____1
 62
    18
100
AcDbVertex
100
AcDb2dVertex
 10
10.842117
 20
18.364692
 30
0.0
  0
VERTEX
  5
36
100
AcDbEntity
  8
___C____1
  6
____1
 62
    18
100
AcDbVertex
100
AcDb2dVertex
 10
10.678534
 20
18.259697
 30
0.0
  0
VERTEX
  5
37
100
AcDbEntity
  8
___C____1
  6
____1
 62
    18
100
AcDbVertex
100
AcDb2dVertex
 10
10.476801
 20
18.098705
 30
0.0
  0
VERTEX
  5
38
100
AcDbEntity
  8
___C____1
  6
____1
 62
    18
100
AcDbVertex
100
AcDb2dVertex
 10
10.231542
 20
17.869039
 30
0.0
  0
VERTEX
  5
39
100
AcDbEntity
  8
___C____1
  6
____1
 62
    18
100
AcDbVertex
100
AcDb2dVertex
 10
9.937382
 20
17.558027
 30
0.0
  0
VERTEX
  5
3A
100
AcDbEntity
  8
___C____1
  6
____1
 62
    18
100
AcDbVertex
100
AcDb2dVertex
 10
9.588943
 20
17.152993
 30
0.0
  0
VERTEX
  5
3B
100
AcDbEntity
  8
___C____1
  6
____1
 62
    18
100
AcDbVertex
100
AcDb2dVertex
 10
9.550218
 20
17.102217
 30
0.0
  0
VERTEX
  5
3C
100
AcDbEntity
  8
___C____1
  6
____1
 62
    18
100
AcDbVertex
100
AcDb2dVertex
 10
9.445414
 20
16.96232
 30
0.0
  0
VERTEX
  5
3D
100
AcDbEntity
  8
___C____1
  6
____1
 62
    18
100
AcDbVertex
100
AcDb2dVertex
 10
9.291587
 20
16.751947
 30
0.0
  0
VERTEX
  5
3E
100
AcDbEntity
  8
___C____1
  6
____1
 62
    18
100
AcDbVertex
100
AcDb2dVertex
 10
9.105793
 20
16.489743
 30
0.0
  0
VERTEX
  5
3F
100
AcDbEntity
  8
___C____1
  6
____1
 62
    18
100
AcDbVertex
100
AcDb2dVertex
 10
8.905087
 20
16.194354
 30
0.0
  0
VERTEX
  5
40
100
AcDbEntity
  8
___C____1
  6
____1
 62
    18
100
AcDbVertex
100
AcDb2dVertex
 10
8.706524
 20
15.884426
 30
0.0
  0
VERTEX
  5
41
100
AcDbEntity
  8
___C____1
  6
____1
 62
    18
100
AcDbVertex
100
AcDb2dVertex
 10
8.527161
 20
15.578602
 30
0.0
  0
VERTEX
  5
42
100
AcDbEntity
  8
___C____1
  6
____1
 62
    18
100
AcDbVertex
100
AcDb2dVertex
 10
8.384052
 20
15.29553
 30
0.0
  0
VERTEX
  5
43
100
AcDbEntity
  8
___C____1
  6
____1
 62
    18
100
AcDbVertex
100
AcDb2dVertex
 10
8.350297
 20
15.211327
 30
0.0
  0
VERTEX
  5
44
100
AcDbEntity
  8
___C____1
  6
____1
 62
    18
100
AcDbVertex
100
AcDb2dVertex
 10
8.286865
 20
14.998097
 30
0.0
  0
VERTEX
  5
45
100
AcDbEntity
  8
___C____1
  6
____1
 62
    18
100
AcDbVertex
100
AcDb2dVertex
 10
8.250508
 20
14.714906
 30
0.0
  0
VERTEX
  5
46
100
AcDbEntity
  8
___C____1
  6
____1
 62
    18
100
AcDbVertex
100
AcDb2dVertex
 10
8.297978
 20
14.42082
 30
0.0
  0
VERTEX
  5
47
100
AcDbEntity
  8
___C____1
  6
____1
 62
    18
100
AcDbVertex
100
AcDb2dVertex
 10
8.486026
 20
14.174908
 30
0.0
  0
SEQEND
  5
48
100
AcDbEntity
  8
___C____1
  6
____1
 62
    18
  0
POLYLINE
  5
49
100
AcDbEntity
  8
___C____1
  6
____1
 62
    18
100
AcDb2dPolyline
 66
     1
 10
0.0
 20
0.0
 30
0.0
  0
VERTEX
  5
4A
100
AcDbEntity
  8
___C____1
  6
____1
 62
    18
100
AcDbVertex
100
AcDb2dVertex
 10
8.653254
 20
16.433724
 30
0.0
  0
VERTEX
  5
4B
100
AcDbEntity
  8
___C____1
  6
____1
 62
    18
100
AcDbVertex
100
AcDb2dVertex
 10
8.482973
 20
16.179742
 30
0.0
  0
VERTEX
  5
4C
100
AcDbEntity
  8
___C____1
  6
____1
 62
    18
100
AcDbVertex
100
AcDb2dVertex
 10
8.282103
 20
15.823411
 30
0.0
  0
VERTEX
  5
4D
100
AcDbEntity
  8
___C____1
  6
____1
 62
    18
100
AcDbVertex
100
AcDb2dVertex
 10
8.185237
 20
15.642833
 30
0.0
  0
VERTEX
  5
4E
100
AcDbEntity
  8
___C____1
  6
____1
 62
    18
100
AcDbVertex
100
AcDb2dVertex
 10
8.050915
 20
15.326368
 30
0.0
  0
VERTEX
  5
4F
100
AcDbEntity
  8
___C____1
  6
____1
 62
    18
100
AcDbVertex
100
AcDb2dVertex
 10
7.975527
 20
15.049299
 30
0.0
  0
VERTEX
  5
50
100
AcDbEntity
  8
___C____1
  6
____1
 62
    18
100
AcDbVertex
100
AcDb2dVertex
 10
7.95498
 20
14.810734
 30
0.0
  0
VERTEX
  5
51
100
AcDbEntity
  8
___C____1
  6
____1
 62
    18
100
AcDbVertex
100
AcDb2dVertex
 10
7.985182
 20
14.609782
 30
0.0
  0
VERTEX
  5
52
100
AcDbEntity
  8
___C____1
  6
____1
 62
    18
100
AcDbVertex
100
AcDb2dVertex
 10
8.06204
 20
14.445551
 30
0.0
  0
VERTEX
  5
53
100
AcDbEntity
  8
___C____1
  6
____1
 62
    18
100
AcDbVertex
100
AcDb2dVertex
 10
8.181461
 20
14.31715
 30
0.0
  0
VERTEX
  5
54
100
AcDbEntity
  8
___C____1
  6
____1
 62
    18
100
AcDbVertex
100
AcDb2dVertex
 10
8.339352
 20
14.223687
 30
0.0
  0
VERTEX
  5
55
100
AcDbEntity
  8
___C____1
  6
____1
 62
    18
100
AcDbVertex
100
AcDb2dVertex
 10
8.531622
 20
14.164271
 30
0.0
  0
VERTEX
  5
56
100
AcDbEntity
  8
___C____1
  6
____1
 62
    18
100
AcDbVertex
100
AcDb2dVertex
 10
8.754177
 20
14.13801
 30
0.0
  0
VERTEX
  5
57
100
AcDbEntity
  8
___C____1
  6
____1
 62
    18
100
AcDbVertex
100
AcDb2dVertex
 10
9.049241
 20
14.180367
 30
0.0
  0
VERTEX
  5
58
100
AcDbEntity
  8
___C____1
  6
____1
 62
    18
100
AcDbVertex
100
AcDb2dVertex
 10
9.351845
 20
14.309011
 30
0.0
  0
VERTEX
  5
59
100
AcDbEntity
  8
___C____1
  6
____1
 62
    18
100
AcDbVertex
100
AcDb2dVertex
 10
9.642696
 20
14.490117
 30
0.0
  0
VERTEX
  5
5A
100
AcDbEntity
  8
___C____1
  6
____1
 62
    18
100
AcDbVertex
100
AcDb2dVertex
 10
9.902498
 20
14.689859
 30
0.0
  0
VERTEX
  5
5B
100
AcDbEntity
  8
___C____1
  6
____1
 62
    18
100
AcDbVertex
100
AcDb2dVertex
 10
10.111959
 20
14.874411
 30
0.0
  0
VERTEX
  5
5C
100
AcDbEntity
  8
___C____1
  6
____1
 62
    18
100
AcDbVertex
100
AcDb2dVertex
 10
10.251784
 20
15.009947
 30
0.0
  0
VERTEX
  5
5D
100
AcDbEntity
  8
___C____1
  6
____1
 62
    18
100
AcDbVertex
100
AcDb2dVertex
 10
10.30268
 20
15.062643
 30
0.0
  0
VERTEX
  5
5E
100
AcDbEntity
  8
___C____1
  6
____1
 62
    18
100
AcDbVertex
100
AcDb2dVertex
 10
10.329524
 20
15.089257
 30
0.0
  0
VERTEX
  5
5F
100
AcDbEntity
  8
___C____1
  6
____1
 62
    18
100
AcDbVertex
100
AcDb2dVertex
 10
10.404682
 20
15.166553
 30
0.0
  0
VERTEX
  5
60
100
AcDbEntity
  8
___C____1
  6
____1
 62
    18
100
AcDbVertex
100
AcDb2dVertex
 10
10.520098
 20
15.290712
 30
0.0
  0
VERTEX
  5
61
100
AcDbEntity
  8
___C____1
  6
____1
 62
    18
100
AcDbVertex
100
AcDb2dVertex
 10
10.667712
 20
15.457916
 30
0.0
  0
VERTEX
  5
62
100
AcDbEntity
  8
___C____1
  6
____1
 62
    18
100
AcDbVertex
100
AcDb2dVertex
 10
10.839467
 20
15.664345
 30
0.0
  0
VERTEX
  5
63
100
AcDbEntity
  8
___C____1
  6
____1
 62
    18
100
AcDbVertex
100
AcDb2dVertex
 10
11.027305
 20
15.906179
 30
0.0
  0
VERTEX
  5
64
100
AcDbEntity
  8
___C____1
  6
____1
 62
    18
100
AcDbVertex
100
AcDb2dVertex
 10
11.223167
 20
16.179601
 30
0.0
  0
VERTEX
  5
65
100
AcDbEntity
  8
___C____1
  6
____1
 62
    18
100
AcDbVertex
100
AcDb2dVertex
 10
11.418996
 20
16.480792
 30
0.0
  0
VERTEX
  5
66
100
AcDbEntity
  8
___C____1
  6
____1
 62
    18
100
AcDbVertex
100
AcDb2dVertex
 10
11.606733
 20
16.805931
 30
0.0
  0
VERTEX
  5
67
100
AcDbEntity
  8
___C____1
  6
____1
 62
    18
100
AcDbVertex
100
AcDb2dVertex
 10
11.778321
 20
17.151201
 30
0.0
  0
VERTEX
  5
68
100
AcDbEntity
  8
___C____1
  6
____1
 62
    18
100
AcDbVertex
100
AcDb2dVertex
 10
11.782388
 20
17.162748
 30
0.0
  0
VERTEX
  5
69
100
AcDbEntity
  8
___C____1
  6
____1
 62
    18
100
AcDbVertex
100
AcDb2dVertex
 10
11.786384
 20
17.176466
 30
0.0
  0
VERTEX
  5
6A
100
AcDbEntity
  8
___C____1
  6
____1
 62
    18
100
AcDbVertex
100
AcDb2dVertex
 10
11.790312
 20
17.187943
 30
0.0
  0
SEQEND
  5
6B
100
AcDbEntity
  8
___C____1
  6
____1
 62
    18
  0
POLYLINE
  5
6C
100
AcDbEntity
  8
___C____1
  6
____1
 62
    18
100
AcDb2dPolyline
 66
     1
 10
0.0
 20
0.0
 30
0.0
  0
VERTEX
  5
6D
100
AcDbEntity
  8
___C____1
  6
____1
 62
    18
100
AcDbVertex
100
AcDb2dVertex
 10
9.517974
 20
17.475574
 30
0.0
  0
VERTEX
  5
6E
100
AcDbEntity
  8
___C____1
  6
____1
 62
    18
100
AcDbVertex
100
AcDb2dVertex
 10
9.735339
 20
17.748922
 30
0.0
  0
VERTEX
  5
6F
100
AcDbEntity
  8
___C____1
  6
____1
 62
    18
100
AcDbVertex
100
AcDb2dVertex
 10
9.95171
 20
17.983442
 30
0.0
  0
VERTEX
  5
70
100
AcDbEntity
  8
___C____1
  6
____1
 62
    18
100
AcDbVertex
100
AcDb2dVertex
 10
10.165863
 20
18.180805
 30
0.0
  0
VERTEX
  5
71
100
AcDbEntity
  8
___C____1
  6
____1
 62
    18
100
AcDbVertex
100
AcDb2dVertex
 10
10.376569
 20
18.342678
 30
0.0
  0
VERTEX
  5
72
100
AcDbEntity
  8
___C____1
  6
____1
 62
    18
100
AcDbVertex
100
AcDb2dVertex
 10
10.582602
 20
18.470732
 30
0.0
  0
VERTEX
  5
73
100
AcDbEntity
  8
___C____1
  6
____1
 62
    18
100
AcDbVertex
100
AcDb2dVertex
 10
10.782736
 20
18.566636
 30
0.0
  0
VERTEX
  5
74
100
AcDbEntity
  8
___C____1
  6
____1
 62
    18
100
AcDbVertex
100
AcDb2dVertex
 10
10.975744
 20
18.632061
 30
0.0
  0
VERTEX
  5
75
100
AcDbEntity
  8
___C____1
  6
____1
 62
    18
100
AcDbVertex
100
AcDb2dVertex
 10
11.160399
 20
18.668675
 30
0.0
  0
VERTEX
  5
76
100
AcDbEntity
  8
___C____1
  6
____1
 62
    18
100
AcDbVertex
100
AcDb2dVertex
 10
11.335475
 20
18.678147
 30
0.0
  0
VERTEX
  5
77
100
AcDbEntity
  8
___C____1
  6
____1
 62
    18
100
AcDbVertex
100
AcDb2dVertex
 10
11.499745
 20
18.662149
 30
0.0
  0
VERTEX
  5
78
100
AcDbEntity
  8
___C____1
  6
____1
 62
    18
100
AcDbVertex
100
AcDb2dVertex
 10
11.651982
 20
18.622348
 30
0.0
  0
VERTEX
  5
79
100
AcDbEntity
  8
___C____1
  6
____1
 62
    18
100
AcDbVertex
100
AcDb2dVertex
 10
11.79096
 20
18.560416
 30
0.0
  0
VERTEX
  5
7A
100
AcDbEntity
  8
___C____1
  6
____1
 62
    18
100
AcDbVertex
100
AcDb2dVertex
 10
11.915451
 20
18.47802
 30
0.0
  0
VERTEX
  5
7B
100
AcDbEntity
  8
___C____1
  6
____1
 62
    18
100
AcDbVertex
100
AcDb2dVertex
 10
12.024231
 20
18.376831
 30
0.0
  0
VERTEX
  5
7C
100
AcDbEntity
  8
___C____1
  6
____1
 62
    18
100
AcDbVertex
100
AcDb2dVertex
 10
12.116071
 20
18.258519
 30
0.0
  0
VERTEX
  5
7D
100
AcDbEntity
  8
___C____1
  6
____1
 62
    18
100
AcDbVertex
100
AcDb2dVertex
 10
12.189745
 20
18.124753
 30
0.0
  0
VERTEX
  5
7E
100
AcDbEntity
  8
___C____1
  6
____1
 62
    18
100
AcDbVertex
100
AcDb2dVertex
 10
12.244027
 20
17.977202
 30
0.0
  0
VERTEX
  5
7F
100
AcDbEntity
  8
___C____1
  6
____1
 62
    18
100
AcDbVertex
100
AcDb2dVertex
 10
12.27769
 20
17.817536
 30
0.0
  0
VERTEX
  5
80
100
AcDbEntity
  8
___C____1
  6
____1
 62
    18
100
AcDbVertex
100
AcDb2dVertex
 10
12.28353
 20
17.643677
 30
0.0
  0
VERTEX
  5
81
100
AcDbEntity
  8
___C____1
  6
____1
 62
    18
100
AcDbVertex
100
AcDb2dVertex
 10
12.257093
 20
17.454031
 30
0.0
  0
VERTEX
  5
82
100
AcDbEntity
  8
___C____1
  6
____1
 62
    18
100
AcDbVertex
100
AcDb2dVertex
 10
12.201277
 20
17.250991
 30
0.0
  0
VERTEX
  5
83
100
AcDbEntity
  8
___C____1
  6
____1
 62
    18
100
AcDbVertex
100
AcDb2dVertex
 10
12.118981
 20
17.036953
 30
0.0
  0
VERTEX
  5
84
100
AcDbEntity
  8
___C____1
  6
____1
 62
    18
100
AcDbVertex
100
AcDb2dVertex
 10
12.013103
 20
16.814312
 30
0.0
  0
VERTEX
  5
85
100
AcDbEntity
  8
___C____1
  6
____1
 62
    18
100
AcDbVertex
100
AcDb2dVertex
 10
11.88654
 20
16.585461
 30
0.0
  0
VERTEX
  5
86
100
AcDbEntity
  8
___C____1
  6
____1
 62
    18
100
AcDbVertex
100
AcDb2dVertex
 10
11.742192
 20
16.352795
 30
0.0
  0
VERTEX
  5
87
100
AcDbEntity
  8
___C____1
  6
____1
 62
    18
100
AcDbVertex
100
AcDb2dVertex
 10
11.582956
 20
16.118709
 30
0.0
  0
VERTEX
  5
88
100
AcDbEntity
  8
___C____1
  6
____1
 62
    18
100
AcDbVertex
100
AcDb2dVertex
 10
11.411731
 20
15.885597
 30
0.0
  0
VERTEX
  5
89
100
AcDbEntity
  8
___C____1
  6
____1
 62
    18
100
AcDbVertex
100
AcDb2dVertex
 10
11.231415
 20
15.655855
 30
0.0
  0
VERTEX
  5
8A
100
AcDbEntity
  8
___C____1
  6
____1
 62
    18
100
AcDbVertex
100
AcDb2dVertex
 10
11.044906
 20
15.431876
 30
0.0
  0
VERTEX
  5
8B
100
AcDbEntity
  8
___C____1
  6
____1
 62
    18
100
AcDbVertex
100
AcDb2dVertex
 10
10.855102
 20
15.216056
 30
0.0
  0
VERTEX
  5
8C
100
AcDbEntity
  8
___C____1
  6
____1
 62
    18
100
AcDbVertex
100
AcDb2dVertex
 10
10.664902
 20
15.010788
 30
0.0
  0
VERTEX
  5
8D
100
AcDbEntity
  8
___C____1
  6
____1
 62
    18
100
AcDbVertex
100
AcDb2dVertex
 10
10.477204
 20
14.818467
 30
0.0
  0
VERTEX
  5
8E
100
AcDbEntity
  8
___C____1
  6
____1
 62
    18
100
AcDbVertex
100
AcDb2dVertex
 10
10.294906
 20
14.641489
 30
0.0
  0
VERTEX
  5
8F
100
AcDbEntity
  8
___C____1
  6
____1
 62
    18
100
AcDbVertex
100
AcDb2dVertex
 10
10.120906
 20
14.482247
 30
0.0
  0
VERTEX
  5
90
100
AcDbEntity
  8
___C____1
  6
____1
 62
    18
100
AcDbVertex
100
AcDb2dVertex
 10
9.958102
 20
14.343136
 30
0.0
  0
VERTEX
  5
91
100
AcDbEntity
  8
___C____1
  6
____1
 62
    18
100
AcDbVertex
100
AcDb2dVertex
 10
9.809394
 20
14.226551
 30
0.0
  0
VERTEX
  5
92
100
AcDbEntity
  8
___C____1
  6
____1
 62
    18
100
AcDbVertex
100
AcDb2dVertex
 10
9.594645
 20
14.085862
 30
0.0
  0
VERTEX
  5
93
100
AcDbEntity
  8
___C____1
  6
____1
 62
    18
100
AcDbVertex
100
AcDb2dVertex
 10
9.375244
 20
13.977503
 30
0.0
  0
VERTEX
  5
94
100
AcDbEntity
  8
___C____1
  6
____1
 62
    18
100
AcDbVertex
100
AcDb2dVertex
 10
9.155333
 20
13.901674
 30
0.0
  0
VERTEX
  5
95
100
AcDbEntity
  8
___C____1
  6
____1
 62
    18
100
AcDbVertex
100
AcDb2dVertex
 10
8.939053
 20
13.858575
 30
0.0
  0
VERTEX
  5
96
100
AcDbEntity
  8
___C____1
  6
____1
 62
    18
100
AcDbVertex
100
AcDb2dVertex
 10
8.730548
 20
13.848405
 30
0.0
  0
VERTEX
  5
97
100
AcDbEntity
  8
___C____1
  6
____1
 62
    18
100
AcDbVertex
100
AcDb2dVertex
 10
8.533957
 20
13.871364
 30
0.0
  0
VERTEX
  5
98
100
AcDbEntity
  8
___C____1
  6
____1
 62
    18
100
AcDbVertex
100
AcDb2dVertex
 10
8.353424
 20
13.927653
 30
0.0
  0
VERTEX
  5
99
100
AcDbEntity
  8
___C____1
  6
____1
 62
    18
100
AcDbVertex
100
AcDb2dVertex
 10
8.193089
 20
14.017471
 30
0.0
  0
VERTEX
  5
9A
100
AcDbEntity
  8
___C____1
  6
____1
 62
    18
100
AcDbVertex
100
AcDb2dVertex
 10
8.057095
 20
14.141018
 30
0.0
  0
VERTEX
  5
9B
100
AcDbEntity
  8
___C____1
  6
____1
 62
    18
100
AcDbVertex
100
AcDb2dVertex
 10
7.949584
 20
14.298493
 30
0.0
  0
VERTEX
  5
9C
100
AcDbEntity
  8
___C____1
  6
____1
 62
    18
100
AcDbVertex
100
AcDb2dVertex
 10
7.874697
 20
14.490098
 30
0.0
  0
VERTEX
  5
9D
100
AcDbEntity
  8
___C____1
  6
____1
 62
    18
100
AcDbVertex
100
AcDb2dVertex
 10
7.836575
 20
14.716031
 30
0.0
  0
VERTEX
  5
9E
100
AcDbEntity
  8
___C____1
  6
____1
 62
    18
100
AcDbVertex
100
AcDb2dVertex
 10
7.851444
 20
14.988482
 30
0.0
  0
VERTEX
  5
9F
100
AcDbEntity
  8
___C____1
  6
____1
 62
    18
100
AcDbVertex
100
AcDb2dVertex
 10
7.927326
 20
15.270322
 30
0.0
  0
VERTEX
  5
A0
100
AcDbEntity
  8
___C____1
  6
____1
 62
    18
100
AcDbVertex
100
AcDb2dVertex
 10
8.051067
 20
15.554105
 30
0.0
  0
VERTEX
  5
A1
100
AcDbEntity
  8
___C____1
  6
____1
 62
    18
100
AcDbVertex
100
AcDb2dVertex
 10
8.209514
 20
15.832387
 30
0.0
  0
VERTEX
  5
A2
100
AcDbEntity
  8
___C____1
  6
____1
 62
    18
100
AcDbVertex
100
AcDb2dVertex
 10
8.389512
 20
16.097721
 30
0.0
  0
VERTEX
  5
A3
100
AcDbEntity
  8
___C____1
  6
____1
 62
    18
100
AcDbVertex
100
AcDb2dVertex
 10
8.577908
 20
16.342661
 30
0.0
  0
VERTEX
  5
A4
100
AcDbEntity
  8
___C____1
  6
____1
 62
    18
100
AcDbVertex
100
AcDb2dVertex
 10
8.761546
 20
16.559764
 30
0.0
  0
VERTEX
  5
A5
100
AcDbEntity
  8
___C____1
  6
____1
 62
    18
100
AcDbVertex
100
AcDb2dVertex
 10
8.927274
 20
16.741581
 30
0.0
  0
VERTEX
  5
A6
100
AcDbEntity
  8
___C____1
  6
____1
 62
    18
100
AcDbVertex
100
AcDb2dVertex
 10
9.061937
 20
16.88067
 30
0.0
  0
VERTEX
  5
A7
100
AcDbEntity
  8
___C____1
  6
____1
 62
    18
100
AcDbVertex
100
AcDb2dVertex
 10
9.152381
 20
16.969583
 30
0.0
  0
VERTEX
  5
A8
100
AcDbEntity
  8
___C____1
  6
____1
 62
    18
100
AcDbVertex
100
AcDb2dVertex
 10
9.185452
 20
17.000875
 30
0.0
  0
VERTEX
  5
A9
100
AcDbEntity
  8
___C____1
  6
____1
 62
    18
100
AcDbVertex
100
AcDb2dVertex
 10
9.271762
 20
17.089578
 30
0.0
  0
VERTEX
  5
AA
100
AcDbEntity
  8
___C____1
  6
____1
 62
    18
100
AcDbVertex
100
AcDb2dVertex
 10
9.441665
 20
17.263922
 30
0.0
  0
VERTEX
  5
AB
100
AcDbEntity
  8
___C____1
  6
____1
 62
    18
100
AcDbVertex
100
AcDb2dVertex
 10
9.561623
 20
17.386261
 30
0.0
  0
VERTEX
  5
AC
100
AcDbEntity
  8
___C____1
  6
____1
 62
    18
100
AcDbVertex
100
AcDb2dVertex
 10
9.587608
 20
17.41687
 30
0.0
  0
VERTEX
  5
AD
100
AcDbEntity
  8
___C____1
  6
____1
 62
    18
100
AcDbVertex
100
AcDb2dVertex
 10
9.661477
 20
17.50005
 30
0.0
  0
VERTEX
  5
AE
100
AcDbEntity
  8
___C____1
  6
____1
 62
    18
100
AcDbVertex
100
AcDb2dVertex
 10
9.777104
 20
17.622833
 30
0.0
  0
VERTEX
  5
AF
100
AcDbEntity
  8
___C____1
  6
____1
 62
    18
100
AcDbVertex
100
AcDb2dVertex
 10
9.928363
 20
17.772249
 30
0.0
  0
VERTEX
  5
B0
100
AcDbEntity
  8
___C____1
  6
____1
 62
    18
100
AcDbVertex
100
AcDb2dVertex
 10
10.109126
 20
17.935328
 30
0.0
  0
VERTEX
  5
B1
100
AcDbEntity
  8
___C____1
  6
____1
 62
    18
100
AcDbVertex
100
AcDb2dVertex
 10
10.313267
 20
18.099102
 30
0.0
  0
VERTEX
  5
B2
100
AcDbEntity
  8
___C____1
  6
____1
 62
    18
100
AcDbVertex
100
AcDb2dVertex
 10
10.534659
 20
18.250601
 30
0.0
  0
VERTEX
  5
B3
100
AcDbEntity
  8
___C____1
  6
____1
 62
    18
100
AcDbVertex
100
AcDb2dVertex
 10
10.767177
 20
18.376855
 30
0.0
  0
VERTEX
  5
B4
100
AcDbEntity
  8
___C____1
  6
____1
 62
    18
100
AcDbVertex
100
AcDb2dVertex
 10
11.004692
 20
18.464896
 30
0.0
  0
VERTEX
  5
B5
100
AcDbEntity
  8
___C____1
  6
____1
 62
    18
100
AcDbVertex
100
AcDb2dVertex
 10
11.241079
 20
18.501754
 30
0.0
  0
VERTEX
  5
B6
100
AcDbEntity
  8
___C____1
  6
____1
 62
    18
100
AcDbVertex
100
AcDb2dVertex
 10
11.47021
 20
18.47446
 30
0.0
  0
VERTEX
  5
B7
100
AcDbEntity
  8
___C____1
  6
____1
 62
    18
100
AcDbVertex
100
AcDb2dVertex
 10
11.68596
 20
18.370043
 30
0.0
  0
SEQEND
  5
B8
100
AcDbEntity
  8
___C____1
  6
____1
 62
    18
  0
POLYLINE
  5
B9
100
AcDbEntity
  8
___C____1
  6
____1
 62
    18
100
AcDb2dPolyline
 66
     1
 10
0.0
 20
0.0
 30
0.0
  0
VERTEX
  5
BA
100
AcDbEntity
  8
___C____1
  6
____1
 62
    18
100
AcDbVertex
100
AcDb2dVertex
 10
8.315546
 20
16.391849
 30
0.0
  0
VERTEX
  5
BB
100
AcDbEntity
  8
___C____1
  6
____1
 62
    18
100
AcDbVertex
100
AcDb2dVertex
 10
8.533172
 20
16.719126
 30
0.0
  0
VERTEX
  5
BC
100
AcDbEntity
  8
___C____1
  6
____1
 62
    18
100
AcDbVertex
100
AcDb2dVertex
 10
8.766505
 20
17.031181
 30
0.0
  0
VERTEX
  5
BD
100
AcDbEntity
  8
___C____1
  6
____1
 62
    18
100
AcDbVertex
100
AcDb2dVertex
 10
9.007868
 20
17.324652
 30
0.0
  0
VERTEX
  5
BE
100
AcDbEntity
  8
___C____1
  6
____1
 62
    18
100
AcDbVertex
100
AcDb2dVertex
 10
9.249584
 20
17.59618
 30
0.0
  0
VERTEX
  5
BF
100
AcDbEntity
  8
___C____1
  6
____1
 62
    18
100
AcDbVertex
100
AcDb2dVertex
 10
9.483978
 20
17.842406
 30
0.0
  0
VERTEX
  5
C0
100
AcDbEntity
  8
___C____1
  6
____1
 62
    18
100
AcDbVertex
100
AcDb2dVertex
 10
9.703373
 20
18.059968
 30
0.0
  0
VERTEX
  5
C1
100
AcDbEntity
  8
___C____1
  6
____1
 62
    18
100
AcDbVertex
100
AcDb2dVertex
 10
9.900092
 20
18.245508
 30
0.0
  0
VERTEX
  5
C2
100
AcDbEntity
  8
___C____1
  6
____1
 62
    18
100
AcDbVertex
100
AcDb2dVertex
 10
10.066458
 20
18.395666
 30
0.0
  0
VERTEX
  5
C3
100
AcDbEntity
  8
___C____1
  6
____1
 62
    18
100
AcDbVertex
100
AcDb2dVertex
 10
10.194796
 20
18.507081
 30
0.0
  0
VERTEX
  5
C4
100
AcDbEntity
  8
___C____1
  6
____1
 62
    18
100
AcDbVertex
100
AcDb2dVertex
 10
10.277428
 20
18.576395
 30
0.0
  0
VERTEX
  5
C5
100
AcDbEntity
  8
___C____1
  6
____1
 62
    18
100
AcDbVertex
100
AcDb2dVertex
 10
10.306677
 20
18.600246
 30
0.0
  0
VERTEX
  5
C6
100
AcDbEntity
  8
___C____1
  6
____1
 62
    18
100
AcDbVertex
100
AcDb2dVertex
 10
10.644493
 20
18.804495
 30
0.0
  0
VERTEX
  5
C7
100
AcDbEntity
  8
___C____1
  6
____1
 62
    18
100
AcDbVertex
100
AcDb2dVertex
 10
10.953759
 20
18.909195
 30
0.0
  0
VERTEX
  5
C8
100
AcDbEntity
  8
___C____1
  6
____1
 62
    18
100
AcDbVertex
100
AcDb2dVertex
 10
11.225939
 20
18.939175
 30
0.0
  0
VERTEX
  5
C9
100
AcDbEntity
  8
___C____1
  6
____1
 62
    18
100
AcDbVertex
100
AcDb2dVertex
 10
11.452494
 20
18.919268
 30
0.0
  0
VERTEX
  5
CA
100
AcDbEntity
  8
___C____1
  6
____1
 62
    18
100
AcDbVertex
100
AcDb2dVertex
 10
11.62489
 20
18.874305
 30
0.0
  0
VERTEX
  5
CB
100
AcDbEntity
  8
___C____1
  6
____1
 62
    18
100
AcDbVertex
100
AcDb2dVertex
 10
11.734588
 20
18.829117
 30
0.0
  0
VERTEX
  5
CC
100
AcDbEntity
  8
___C____1
  6
____1
 62
    18
100
AcDbVertex
100
AcDb2dVertex
 10
11.773051
 20
18.808537
 30
0.0
  0
VERTEX
  5
CD
100
AcDbEntity
  8
___C____1
  6
____1
 62
    18
100
AcDbVertex
100
AcDb2dVertex
 10
12.033331
 20
18.610212
 30
0.0
  0
VERTEX
  5
CE
100
AcDbEntity
  8
___C____1
  6
____1
 62
    18
100
AcDbVertex
100
AcDb2dVertex
 10
12.213561
 20
18.389601
 30
0.0
  0
VERTEX
  5
CF
100
AcDbEntity
  8
___C____1
  6
____1
 62
    18
100
AcDbVertex
100
AcDb2dVertex
 10
12.324686
 20
18.154241
 30
0.0
  0
VERTEX
  5
D0
100
AcDbEntity
  8
___C____1
  6
____1
 62
    18
100
AcDbVertex
100
AcDb2dVertex
 10
12.377649
 20
17.911665
 30
0.0
  0
VERTEX
  5
D1
100
AcDbEntity
  8
___C____1
  6
____1
 62
    18
100
AcDbVertex
100
AcDb2dVertex
 10
12.383395
 20
17.669409
 30
0.0
  0
VERTEX
  5
D2
100
AcDbEntity
  8
___C____1
  6
____1
 62
    18
100
AcDbVertex
100
AcDb2dVertex
 10
12.352867
 20
17.435007
 30
0.0
  0
VERTEX
  5
D3
100
AcDbEntity
  8
___C____1
  6
____1
 62
    18
100
AcDbVertex
100
AcDb2dVertex
 10
12.29701
 20
17.215994
 30
0.0
  0
VERTEX
  5
D4
100
AcDbEntity
  8
___C____1
  6
____1
 62
    18
100
AcDbVertex
100
AcDb2dVertex
 10
12.226767
 20
17.019905
 30
0.0
  0
VERTEX
  5
D5
100
AcDbEntity
  8
___C____1
  6
____1
 62
    18
100
AcDbVertex
100
AcDb2dVertex
 10
12.153083
 20
16.854275
 30
0.0
  0
VERTEX
  5
D6
100
AcDbEntity
  8
___C____1
  6
____1
 62
    18
100
AcDbVertex
100
AcDb2dVertex
 10
12.086902
 20
16.72664
 30
0.0
  0
VERTEX
  5
D7
100
AcDbEntity
  8
___C____1
  6
____1
 62
    18
100
AcDbVertex
100
AcDb2dVertex
 10
12.039168
 20
16.644533
 30
0.0
  0
VERTEX
  5
D8
100
AcDbEntity
  8
___C____1
  6
____1
 62
    18
100
AcDbVertex
100
AcDb2dVertex
 10
12.020825
 20
16.615489
 30
0.0
  0
VERTEX
  5
D9
100
AcDbEntity
  8
___C____1
  6
____1
 62
    18
100
AcDbVertex
100
AcDb2dVertex
 10
11.935433
 20
16.472248
 30
0.0
  0
VERTEX
  5
DA
100
AcDbEntity
  8
___C____1
  6
____1
 62
    18
100
AcDbVertex
100
AcDb2dVertex
 10
11.821447
 20
16.300289
 30
0.0
  0
VERTEX
  5
DB
100
AcDbEntity
  8
___C____1
  6
____1
 62
    18
100
AcDbVertex
100
AcDb2dVertex
 10
11.682525
 20
16.105101
 30
0.0
  0
VERTEX
  5
DC
100
AcDbEntity
  8
___C____1
  6
____1
 62
    18
100
AcDbVertex
100
AcDb2dVertex
 10
11.522327
 20
15.892171
 30
0.0
  0
VERTEX
  5
DD
100
AcDbEntity
  8
___C____1
  6
____1
 62
    18
100
AcDbVertex
100
AcDb2dVertex
 10
11.344511
 20
15.666988
 30
0.0
  0
VERTEX
  5
DE
100
AcDbEntity
  8
___C____1
  6
____1
 62
    18
100
AcDbVertex
100
AcDb2dVertex
 10
11.152737
 20
15.435039
 30
0.0
  0
VERTEX
  5
DF
100
AcDbEntity
  8
___C____1
  6
____1
 62
    18
100
AcDbVertex
100
AcDb2dVertex
 10
10.950663
 20
15.201813
 30
0.0
  0
VERTEX
  5
E0
100
AcDbEntity
  8
___C____1
  6
____1
 62
    18
100
AcDbVertex
100
AcDb2dVertex
 10
10.741949
 20
14.972798
 30
0.0
  0
VERTEX
  5
E1
100
AcDbEntity
  8
___C____1
  6
____1
 62
    18
100
AcDbVertex
100
AcDb2dVertex
 10
10.530253
 20
14.753481
 30
0.0
  0
VERTEX
  5
E2
100
AcDbEntity
  8
___C____1
  6
____1
 62
    18
100
AcDbVertex
100
AcDb2dVertex
 10
10.319234
 20
14.54935
 30
0.0
  0
VERTEX
  5
E3
100
AcDbEntity
  8
___C____1
  6
____1
 62
    18
100
AcDbVertex
100
AcDb2dVertex
 10
10.112552
 20
14.365895
 30
0.0
  0
VERTEX
  5
E4
100
AcDbEntity
  8
___C____1
  6
____1
 62
    18
100
AcDbVertex
100
AcDb2dVertex
 10
9.913865
 20
14.208602
 30
0.0
  0
VERTEX
  5
E5
100
AcDbEntity
  8
___C____1
  6
____1
 62
    18
100
AcDbVertex
100
AcDb2dVertex
 10
9.726833
 20
14.082959
 30
0.0
  0
VERTEX
  5
E6
100
AcDbEntity
  8
___C____1
  6
____1
 62
    18
100
AcDbVertex
100
AcDb2dVertex
 10
9.490499
 20
13.957282
 30
0.0
  0
VERTEX
  5
E7
100
AcDbEntity
  8
___C____1
  6
____1
 62
    18
100
AcDbVertex
100
AcDb2dVertex
 10
9.252222
 20
13.862654
 30
0.0
  0
VERTEX
  5
E8
100
AcDbEntity
  8
___C____1
  6
____1
 62
    18
100
AcDbVertex
100
AcDb2dVertex
 10
9.016116
 20
13.801491
 30
0.0
  0
VERTEX
  5
E9
100
AcDbEntity
  8
___C____1
  6
____1
 62
    18
100
AcDbVertex
100
AcDb2dVertex
 10
8.786294
 20
13.776212
 30
0.0
  0
VERTEX
  5
EA
100
AcDbEntity
  8
___C____1
  6
____1
 62
    18
100
AcDbVertex
100
AcDb2dVertex
 10
8.566871
 20
13.789233
 30
0.0
  0
VERTEX
  5
EB
100
AcDbEntity
  8
___C____1
  6
____1
 62
    18
100
AcDbVertex
100
AcDb2dVertex
 10
8.36196
 20
13.842972
 30
0.0
  0
VERTEX
  5
EC
100
AcDbEntity
  8
___C____1
  6
____1
 62
    18
100
AcDbVertex
100
AcDb2dVertex
 10
8.175674
 20
13.939847
 30
0.0
  0
VERTEX
  5
ED
100
AcDbEntity
  8
___C____1
  6
____1
 62
    18
100
AcDbVertex
100
AcDb2dVertex
 10
8.012127
 20
14.082275
 30
0.0
  0
VERTEX
  5
EE
100
AcDbEntity
  8
___C____1
  6
____1
 62
    18
100
AcDbVertex
100
AcDb2dVertex
 10
7.875433
 20
14.272673
 30
0.0
  0
VERTEX
  5
EF
100
AcDbEntity
  8
___C____1
  6
____1
 62
    18
100
AcDbVertex
100
AcDb2dVertex
 10
7.769706
 20
14.513458
 30
0.0
  0
VERTEX
  5
F0
100
AcDbEntity
  8
___C____1
  6
____1
 62
    18
100
AcDbVertex
100
AcDb2dVertex
 10
7.726683
 20
14.765375
 30
0.0
  0
VERTEX
  5
F1
100
AcDbEntity
  8
___C____1
  6
____1
 62
    18
100
AcDbVertex
100
AcDb2dVertex
 10
7.750711
 20
15.031126
 30
0.0
  0
VERTEX
  5
F2
100
AcDbEntity
  8
___C____1
  6
____1
 62
    18
100
AcDbVertex
100
AcDb2dVertex
 10
7.829052
 20
15.303269
 30
0.0
  0
VERTEX
  5
F3
100
AcDbEntity
  8
___C____1
  6
____1
 62
    18
100
AcDbVertex
100
AcDb2dVertex
 10
7.948971
 20
15.574362
 30
0.0
  0
VERTEX
  5
F4
100
AcDbEntity
  8
___C____1
  6
____1
 62
    18
100
AcDbVertex
100
AcDb2dVertex
 10
8.09773
 20
15.83696
 30
0.0
  0
VERTEX
  5
F5
100
AcDbEntity
  8
___C____1
  6
____1
 62
    18
100
AcDbVertex
100
AcDb2dVertex
 10
8.262593
 20
16.083622
 30
0.0
  0
VERTEX
  5
F6
100
AcDbEntity
  8
___C____1
  6
____1
 62
    18
100
AcDbVertex
100
AcDb2dVertex
 10
8.430821
 20
16.306903
 30
0.0
  0
VERTEX
  5
F7
100
AcDbEntity
  8
___C____1
  6
____1
 62
    18
100
AcDbVertex
100
AcDb2dVertex
 10
8.58968
 20
16.499362
 30
0.0
  0
VERTEX
  5
F8
100
AcDbEntity
  8
___C____1
  6
____1
 62
    18
100
AcDbVertex
100
AcDb2dVertex
 10
8.726431
 20
16.653555
 30
0.0
  0
VERTEX
  5
F9
100
AcDbEntity
  8
___C____1
  6
____1
 62
    18
100
AcDbVertex
100
AcDb2dVertex
 10
8.828337
 20
16.762038
 30
0.0
  0
VERTEX
  5
FA
100
AcDbEntity
  8
___C____1
  6
____1
 62
    18
100
AcDbVertex
100
AcDb2dVertex
 10
8.882662
 20
16.81737
 30
0.0
  0
VERTEX
  5
FB
100
AcDbEntity
  8
___C____1
  6
____1
 62
    18
100
AcDbVertex
100
AcDb2dVertex
 10
9.028473
 20
16.967317
 30
0.0
  0
VERTEX
  5
FC
100
AcDbEntity
  8
___C____1
  6
____1
 62
    18
100
AcDbVertex
100
AcDb2dVertex
 10
9.292579
 20
17.241286
 30
0.0
  0
VERTEX
  5
FD
100
AcDbEntity
  8
___C____1
  6
____1
 62
    18
100
AcDbVertex
100
AcDb2dVertex
 10
9.588409
 20
17.548889
 30
0.0
  0
VERTEX
  5
FE
100
AcDbEntity
  8
___C____1
  6
____1
 62
    18
100
AcDbVertex
100
AcDb2dVertex
 10
9.829392
 20
17.799735
 30
0.0
  0
VERTEX
  5
FF
100
AcDbEntity
  8
___C____1
  6
____1
 62
    18
100
AcDbVertex
100
AcDb2dVertex
 10
9.928957
 20
17.903437
 30
0.0
  0
VERTEX
  5
100
100
AcDbEntity
  8
___C____1
  6
____1
 62
    18
100
AcDbVertex
100
AcDb2dVertex
 10
9.95683
 20
17.931902
 30
0.0
  0
VERTEX
  5
101
100
AcDbEntity
  8
___C____1
  6
____1
 62
    18
100
AcDbVertex
100
AcDb2dVertex
 10
10.035941
 20
18.007263
 30
0.0
  0
VERTEX
  5
102
100
AcDbEntity
  8
___C____1
  6
____1
 62
    18
100
AcDbVertex
100
AcDb2dVertex
 10
10.159531
 20
18.114474
 30
0.0
  0
VERTEX
  5
103
100
AcDbEntity
  8
___C____1
  6
____1
 62
    18
100
AcDbVertex
100
AcDb2dVertex
 10
10.320837
 20
18.238487
 30
0.0
  0
VERTEX
  5
104
100
AcDbEntity
  8
___C____1
  6
____1
 62
    18
100
AcDbVertex
100
AcDb2dVertex
 10
10.5131
 20
18.364254
 30
0.0
  0
VERTEX
  5
105
100
AcDbEntity
  8
___C____1
  6
____1
 62
    18
100
AcDbVertex
100
AcDb2dVertex
 10
10.729559
 20
18.476729
 30
0.0
  0
VERTEX
  5
106
100
AcDbEntity
  8
___C____1
  6
____1
 62
    18
100
AcDbVertex
100
AcDb2dVertex
 10
10.963454
 20
18.560863
 30
0.0
  0
VERTEX
  5
107
100
AcDbEntity
  8
___C____1
  6
____1
 62
    18
100
AcDbVertex
100
AcDb2dVertex
 10
11.208023
 20
18.601609
 30
0.0
  0
VERTEX
  5
108
100
AcDbEntity
  8
___C____1
  6
____1
 62
    18
100
AcDbVertex
100
AcDb2dVertex
 10
11.456507
 20
18.58392
 30
0.0
  0
VERTEX
  5
109
100
AcDbEntity
  8
___C____1
  6
____1
 62
    18
100
AcDbVertex
100
AcDb2dVertex
 10
11.702145
 20
18.492747
 30
0.0
  0
VERTEX
  5
10A
100
AcDbEntity
  8
___C____1
  6
____1
 62
    18
100
AcDbVertex
100
AcDb2dVertex
 10
11.938176
 20
18.313045
 30
0.0
  0
VERTEX
  5
10B
100
AcDbEntity
  8
___C____1
  6
____1
 62
    18
100
AcDbVertex
100
AcDb2dVertex
 10
12.081677
 20
18.120652
 30
0.0
  0
VERTEX
  5
10C
100
AcDbEntity
  8
___C____1
  6
____1
 62
    18
100
AcDbVertex
100
AcDb2dVertex
 10
12.158335
 20
17.906921
 30
0.0
  0
VERTEX
  5
10D
100
AcDbEntity
  8
___C____1
  6
____1
 62
    18
100
AcDbVertex
100
AcDb2dVertex
 10
12.177149
 20
17.677276
 30
0.0
  0
VERTEX
  5
10E
100
AcDbEntity
  8
___C____1
  6
____1
 62
    18
100
AcDbVertex
100
AcDb2dVertex
 10
12.147115
 20
17.437139
 30
0.0
  0
VERTEX
  5
10F
100
AcDbEntity
  8
___C____1
  6
____1
 62
    18
100
AcDbVertex
100
AcDb2dVertex
 10
12.077235
 20
17.191936
 30
0.0
  0
VERTEX
  5
110
100
AcDbEntity
  8
___C____1
  6
____1
 62
    18
100
AcDbVertex
100
AcDb2dVertex
 10
11.976505
 20
16.947089
 30
0.0
  0
VERTEX
  5
111
100
AcDbEntity
  8
___C____1
  6
____1
 62
    18
100
AcDbVertex
100
AcDb2dVertex
 10
11.853925
 20
16.708023
 30
0.0
  0
VERTEX
  5
112
100
AcDbEntity
  8
___C____1
  6
____1
 62
    18
100
AcDbVertex
100
AcDb2dVertex
 10
11.718493
 20
16.480161
 30
0.0
  0
VERTEX
  5
113
100
AcDbEntity
  8
___C____1
  6
____1
 62
    18
100
AcDbVertex
100
AcDb2dVertex
 10
11.579209
 20
16.268927
 30
0.0
  0
VERTEX
  5
114
100
AcDbEntity
  8
___C____1
  6
____1
 62
    18
100
AcDbVertex
100
AcDb2dVertex
 10
11.44507
 20
16.079745
 30
0.0
  0
VERTEX
  5
115
100
AcDbEntity
  8
___C____1
  6
____1
 62
    18
100
AcDbVertex
100
AcDb2dVertex
 10
11.325075
 20
15.918039
 30
0.0
  0
VERTEX
  5
116
100
AcDbEntity
  8
___C____1
  6
____1
 62
    18
100
AcDbVertex
100
AcDb2dVertex
 10
11.228223
 20
15.789232
 30
0.0
  0
VERTEX
  5
117
100
AcDbEntity
  8
___C____1
  6
____1
 62
    18
100
AcDbVertex
100
AcDb2dVertex
 10
11.163513
 20
15.698749
 30
0.0
  0
VERTEX
  5
118
100
AcDbEntity
  8
___C____1
  6
____1
 62
    18
100
AcDbVertex
100
AcDb2dVertex
 10
11.139944
 20
15.652012
 30
0.0
  0
VERTEX
  5
119
100
AcDbEntity
  8
___C____1
  6
____1
 62
    18
100
AcDbVertex
100
AcDb2dVertex
 10
11.11777
 20
15.608088
 30
0.0
  0
VERTEX
  5
11A
100
AcDbEntity
  8
___C____1
  6
____1
 62
    18
100
AcDbVertex
100
AcDb2dVertex
 10
11.054169
 20
15.521676
 30
0.0
  0
VERTEX
  5
11B
100
AcDbEntity
  8
___C____1
  6
____1
 62
    18
100
AcDbVertex
100
AcDb2dVertex
 10
10.953524
 20
15.400303
 30
0.0
  0
VERTEX
  5
11C
100
AcDbEntity
  8
___C____1
  6
____1
 62
    18
100
AcDbVertex
100
AcDb2dVertex
 10
10.820217
 20
15.251492
 30
0.0
  0
VERTEX
  5
11D
100
AcDbEntity
  8
___C____1
  6
____1
 62
    18
100
AcDbVertex
100
AcDb2dVertex
 10
10.658628
 20
15.082768
 30
0.0
  0
VERTEX
  5
11E
100
AcDbEntity
  8
___C____1
  6
____1
 62
    18
100
AcDbVertex
100
AcDb2dVertex
 10
10.473141
 20
14.901656
 30
0.0
  0
VERTEX
  5
11F
100
AcDbEntity
  8
___C____1
  6
____1
 62
    18
100
AcDbVertex
100
AcDb2dVertex
 10
10.268137
 20
14.715679
 30
0.0
  0
VERTEX
  5
120
100
AcDbEntity
  8
___C____1
  6
____1
 62
    18
100
AcDbVertex
100
AcDb2dVertex
 10
10.047998
 20
14.532363
 30
0.0
  0
VERTEX
  5
121
100
AcDbEntity
  8
___C____1
  6
____1
 62
    18
100
AcDbVertex
100
AcDb2dVertex
 10
9.817105
 20
14.359233
 30
0.0
  0
VERTEX
  5
122
100
AcDbEntity
  8
___C____1
  6
____1
 62
    18
100
AcDbVertex
100
AcDb2dVertex
 10
9.579842
 20
14.203812
 30
0.0
  0
VERTEX
  5
123
100
AcDbEntity
  8
___C____1
  6
____1
 62
    18
100
AcDbVertex
100
AcDb2dVertex
 10
9.340589
 20
14.073625
 30
0.0
  0
VERTEX
  5
124
100
AcDbEntity
  8
___C____1
  6
____1
 62
    18
100
AcDbVertex
100
AcDb2dVertex
 10
9.103728
 20
13.976197
 30
0.0
  0
VERTEX
  5
125
100
AcDbEntity
  8
___C____1
  6
____1
 62
    18
100
AcDbVertex
100
AcDb2dVertex
 10
8.873642
 20
13.919052
 30
0.0
  0
VERTEX
  5
126
100
AcDbEntity
  8
___C____1
  6
____1
 62
    18
100
AcDbVertex
100
AcDb2dVertex
 10
8.654713
 20
13.909715
 30
0.0
  0
VERTEX
  5
127
100
AcDbEntity
  8
___C____1
  6
____1
 62
    18
100
AcDbVertex
100
AcDb2dVertex
 10
8.451322
 20
13.95571
 30
0.0
  0
VERTEX
  5
128
100
AcDbEntity
  8
___C____1
  6
____1
 62
    18
100
AcDbVertex
100
AcDb2dVertex
 10
8.267851
 20
14.064562
 30
0.0
  0
VERTEX
  5
129
100
AcDbEntity
  8
___C____1
  6
____1
 62
    18
100
AcDbVertex
100
AcDb2dVertex
 10
8.217695
 20
14.108935
 30
0.0
  0
VERTEX
  5
12A
100
AcDbEntity
  8
___C____1
  6
____1
 62
    18
100
AcDbVertex
100
AcDb2dVertex
 10
8.107074
 20
14.228044
 30
0.0
  0
VERTEX
  5
12B
100
AcDbEntity
  8
___C____1
  6
____1
 62
    18
100
AcDbVertex
100
AcDb2dVertex
 10
7.995756
 20
14.400873
 30
0.0
  0
SEQEND
  5
12C
100
AcDbEntity
  8
___C____1
  6
____1
 62
    18
  0
POLYLINE
  5
12D
100
AcDbEntity
  8
___C____1
  6
____1
 62
    18
100
AcDb2dPolyline
 66
     1
 10
0.0
 20
0.0
 30
0.0
  0
VERTEX
  5
12E
100
AcDbEntity
  8
___C____1
  6
____1
 62
    18
100
AcDbVertex
100
AcDb2dVertex
 10
9.820817
 20
18.180407
 30
0.0
  0
VERTEX
  5
12F
100
AcDbEntity
  8
___C____1
  6
____1
 62
    18
100
AcDbVertex
100
AcDb2dVertex
 10
9.783267
 20
18.137356
 30
0.0
  0
VERTEX
  5
130
100
AcDbEntity
  8
___C____1
  6
____1
 62
    18
100
AcDbVertex
100
AcDb2dVertex
 10
9.679697
 20
18.018169
 30
0.0
  0
VERTEX
  5
131
100
AcDbEntity
  8
___C____1
  6
____1
 62
    18
100
AcDbVertex
100
AcDb2dVertex
 10
9.523729
 20
17.837803
 30
0.0
  0
VERTEX
  5
132
100
AcDbEntity
  8
___C____1
  6
____1
 62
    18
100
AcDbVertex
100
AcDb2dVertex
 10
9.328985
 20
17.611211
 30
0.0
  0
VERTEX
  5
133
100
AcDbEntity
  8
___C____1
  6
____1
 62
    18
100
AcDbVertex
100
AcDb2dVertex
 10
9.109084
 20
17.353347
 30
0.0
  0
VERTEX
  5
134
100
AcDbEntity
  8
___C____1
  6
____1
 62
    18
100
AcDbVertex
100
AcDb2dVertex
 10
8.877649
 20
17.079165
 30
0.0
  0
VERTEX
  5
135
100
AcDbEntity
  8
___C____1
  6
____1
 62
    18
100
AcDbVertex
100
AcDb2dVertex
 10
8.648301
 20
16.803619
 30
0.0
  0
VERTEX
  5
136
100
AcDbEntity
  8
___C____1
  6
____1
 62
    18
100
AcDbVertex
100
AcDb2dVertex
 10
8.43466
 20
16.541664
 30
0.0
  0
VERTEX
  5
137
100
AcDbEntity
  8
___C____1
  6
____1
 62
    18
100
AcDbVertex
100
AcDb2dVertex
 10
8.250349
 20
16.308254
 30
0.0
  0
VERTEX
  5
138
100
AcDbEntity
  8
___C____1
  6
____1
 62
    18
100
AcDbVertex
100
AcDb2dVertex
 10
8.063222
 20
16.034059
 30
0.0
  0
VERTEX
  5
139
100
AcDbEntity
  8
___C____1
  6
____1
 62
    18
100
AcDbVertex
100
AcDb2dVertex
 10
7.922794
 20
15.76573
 30
0.0
  0
VERTEX
  5
13A
100
AcDbEntity
  8
___C____1
  6
____1
 62
    18
100
AcDbVertex
100
AcDb2dVertex
 10
7.823633
 20
15.508616
 30
0.0
  0
VERTEX
  5
13B
100
AcDbEntity
  8
___C____1
  6
____1
 62
    18
100
AcDbVertex
100
AcDb2dVertex
 10
7.76031
 20
15.268061
 30
0.0
  0
VERTEX
  5
13C
100
AcDbEntity
  8
___C____1
  6
____1
 62
    18
100
AcDbVertex
100
AcDb2dVertex
 10
7.727392
 20
15.049412
 30
0.0
  0
VERTEX
  5
13D
100
AcDbEntity
  8
___C____1
  6
____1
 62
    18
100
AcDbVertex
100
AcDb2dVertex
 10
7.71945
 20
14.858015
 30
0.0
  0
VERTEX
  5
13E
100
AcDbEntity
  8
___C____1
  6
____1
 62
    18
100
AcDbVertex
100
AcDb2dVertex
 10
7.731052
 20
14.699218
 30
0.0
  0
SEQEND
  5
13F
100
AcDbEntity
  8
___C____1
  6
____1
 62
    18
  0
POLYLINE
  5
140
100
AcDbEntity
  8
___C____1
  6
____1
 62
    18
100
AcDb2dPolyline
 66
     1
 10
0.0
 20
0.0
 30
0.0
  0
VERTEX
  5
141
100
AcDbEntity
  8
___C____1
  6
____1
 62
    18
100
AcDbVertex
100
AcDb2dVertex
 10
8.001302
 20
15.450336
 30
0.0
  0
VERTEX
  5
142
100
AcDbEntity
  8
___C____1
  6
____1
 62
    18
100
AcDbVertex
100
AcDb2dVertex
 10
7.987156
 20
15.413976
 30
0.0
  0
VERTEX
  5
143
100
AcDbEntity
  8
___C____1
  6
____1
 62
    18
100
AcDbVertex
100
AcDb2dVertex
 10
7.954147
 20
15.314733
 30
0.0
  0
VERTEX
  5
144
100
AcDbEntity
  8
___C____1
  6
____1
 62
    18
100
AcDbVertex
100
AcDb2dVertex
 10
7.916418
 20
15.167364
 30
0.0
  0
VERTEX
  5
145
100
AcDbEntity
  8
___C____1
  6
____1
 62
    18
100
AcDbVertex
100
AcDb2dVertex
 10
7.888114
 20
14.986627
 30
0.0
  0
VERTEX
  5
146
100
AcDbEntity
  8
___C____1
  6
____1
 62
    18
100
AcDbVertex
100
AcDb2dVertex
 10
7.883379
 20
14.787279
 30
0.0
  0
VERTEX
  5
147
100
AcDbEntity
  8
___C____1
  6
____1
 62
    18
100
AcDbVertex
100
AcDb2dVertex
 10
7.916355
 20
14.584077
 30
0.0
  0
VERTEX
  5
148
100
AcDbEntity
  8
___C____1
  6
____1
 62
    18
100
AcDbVertex
100
AcDb2dVertex
 10
8.001187
 20
14.391778
 30
0.0
  0
VERTEX
  5
149
100
AcDbEntity
  8
___C____1
  6
____1
 62
    18
100
AcDbVertex
100
AcDb2dVertex
 10
8.152019
 20
14.225139
 30
0.0
  0
VERTEX
  5
14A
100
AcDbEntity
  8
___C____1
  6
____1
 62
    18
100
AcDbVertex
100
AcDb2dVertex
 10
8.382994
 20
14.098917
 30
0.0
  0
VERTEX
  5
14B
100
AcDbEntity
  8
___C____1
  6
____1
 62
    18
100
AcDbVertex
100
AcDb2dVertex
 10
8.708256
 20
14.02787
 30
0.0
  0
VERTEX
  5
14C
100
AcDbEntity
  8
___C____1
  6
____1
 62
    18
100
AcDbVertex
100
AcDb2dVertex
 10
8.720828
 20
14.026123
 30
0.0
  0
VERTEX
  5
14D
100
AcDbEntity
  8
___C____1
  6
____1
 62
    18
100
AcDbVertex
100
AcDb2dVertex
 10
8.758079
 20
14.023785
 30
0.0
  0
VERTEX
  5
14E
100
AcDbEntity
  8
___C____1
  6
____1
 62
    18
100
AcDbVertex
100
AcDb2dVertex
 10
8.81931
 20
14.025211
 30
0.0
  0
VERTEX
  5
14F
100
AcDbEntity
  8
___C____1
  6
____1
 62
    18
100
AcDbVertex
100
AcDb2dVertex
 10
8.903821
 20
14.034756
 30
0.0
  0
VERTEX
  5
150
100
AcDbEntity
  8
___C____1
  6
____1
 62
    18
100
AcDbVertex
100
AcDb2dVertex
 10
9.010915
 20
14.056775
 30
0.0
  0
VERTEX
  5
151
100
AcDbEntity
  8
___C____1
  6
____1
 62
    18
100
AcDbVertex
100
AcDb2dVertex
 10
9.139891
 20
14.095623
 30
0.0
  0
VERTEX
  5
152
100
AcDbEntity
  8
___C____1
  6
____1
 62
    18
100
AcDbVertex
100
AcDb2dVertex
 10
9.290052
 20
14.155654
 30
0.0
  0
VERTEX
  5
153
100
AcDbEntity
  8
___C____1
  6
____1
 62
    18
100
AcDbVertex
100
AcDb2dVertex
 10
9.460697
 20
14.241223
 30
0.0
  0
VERTEX
  5
154
100
AcDbEntity
  8
___C____1
  6
____1
 62
    18
100
AcDbVertex
100
AcDb2dVertex
 10
9.651129
 20
14.356686
 30
0.0
  0
VERTEX
  5
155
100
AcDbEntity
  8
___C____1
  6
____1
 62
    18
100
AcDbVertex
100
AcDb2dVertex
 10
9.860649
 20
14.506396
 30
0.0
  0
VERTEX
  5
156
100
AcDbEntity
  8
___C____1
  6
____1
 62
    18
100
AcDbVertex
100
AcDb2dVertex
 10
10.088557
 20
14.694709
 30
0.0
  0
VERTEX
  5
157
100
AcDbEntity
  8
___C____1
  6
____1
 62
    18
100
AcDbVertex
100
AcDb2dVertex
 10
10.334154
 20
14.925979
 30
0.0
  0
VERTEX
  5
158
100
AcDbEntity
  8
___C____1
  6
____1
 62
    18
100
AcDbVertex
100
AcDb2dVertex
 10
10.596742
 20
15.204562
 30
0.0
  0
VERTEX
  5
159
100
AcDbEntity
  8
___C____1
  6
____1
 62
    18
100
AcDbVertex
100
AcDb2dVertex
 10
10.875622
 20
15.534812
 30
0.0
  0
VERTEX
  5
15A
100
AcDbEntity
  8
___C____1
  6
____1
 62
    18
100
AcDbVertex
100
AcDb2dVertex
 10
11.170095
 20
15.921084
 30
0.0
  0
VERTEX
  5
15B
100
AcDbEntity
  8
___C____1
  6
____1
 62
    18
100
AcDbVertex
100
AcDb2dVertex
 10
11.479461
 20
16.367733
 30
0.0
  0
VERTEX
  5
15C
100
AcDbEntity
  8
___C____1
  6
____1
 62
    18
100
AcDbVertex
100
AcDb2dVertex
 10
11.508088
 20
16.409247
 30
0.0
  0
VERTEX
  5
15D
100
AcDbEntity
  8
___C____1
  6
____1
 62
    18
100
AcDbVertex
100
AcDb2dVertex
 10
11.582537
 20
16.524598
 30
0.0
  0
VERTEX
  5
15E
100
AcDbEntity
  8
___C____1
  6
____1
 62
    18
100
AcDbVertex
100
AcDb2dVertex
 10
11.685662
 20
16.700003
 30
0.0
  0
VERTEX
  5
15F
100
AcDbEntity
  8
___C____1
  6
____1
 62
    18
100
AcDbVertex
100
AcDb2dVertex
 10
11.800316
 20
16.921675
 30
0.0
  0
VERTEX
  5
160
100
AcDbEntity
  8
___C____1
  6
____1
 62
    18
100
AcDbVertex
100
AcDb2dVertex
 10
11.909354
 20
17.175829
 30
0.0
  0
VERTEX
  5
161
100
AcDbEntity
  8
___C____1
  6
____1
 62
    18
100
AcDbVertex
100
AcDb2dVertex
 10
11.995627
 20
17.448681
 30
0.0
  0
VERTEX
  5
162
100
AcDbEntity
  8
___C____1
  6
____1
 62
    18
100
AcDbVertex
100
AcDb2dVertex
 10
12.041991
 20
17.726446
 30
0.0
  0
VERTEX
  5
163
100
AcDbEntity
  8
___C____1
  6
____1
 62
    18
100
AcDbVertex
100
AcDb2dVertex
 10
12.031298
 20
17.995339
 30
0.0
  0
VERTEX
  5
164
100
AcDbEntity
  8
___C____1
  6
____1
 62
    18
100
AcDbVertex
100
AcDb2dVertex
 10
11.946403
 20
18.241574
 30
0.0
  0
VERTEX
  5
165
100
AcDbEntity
  8
___C____1
  6
____1
 62
    18
100
AcDbVertex
100
AcDb2dVertex
 10
11.770158
 20
18.451366
 30
0.0
  0
SEQEND
  5
166
100
AcDbEntity
  8
___C____1
  6
____1
 62
    18
  0
POLYLINE
  5
167
100
AcDbEntity
  8
___C____1
  6
____1
 62
    18
100
AcDb2dPolyline
 66
     1
 10
0.0
 20
0.0
 30
0.0
  0
VERTEX
  5
168
100
AcDbEntity
  8
___C____1
  6
____1
 62
    18
100
AcDbVertex
100
AcDb2dVertex
 10
12.048934
 20
18.175793
 30
0.0
  0
VERTEX
  5
169
100
AcDbEntity
  8
___C____1
  6
____1
 62
    18
100
AcDbVertex
100
AcDb2dVertex
 10
12.054888
 20
18.168118
 30
0.0
  0
VERTEX
  5
16A
100
AcDbEntity
  8
___C____1
  6
____1
 62
    18
100
AcDbVertex
100
AcDb2dVertex
 10
12.069984
 20
18.144425
 30
0.0
  0
VERTEX
  5
16B
100
AcDbEntity
  8
___C____1
  6
____1
 62
    18
100
AcDbVertex
100
AcDb2dVertex
 10
12.090074
 20
18.10371
 30
0.0
  0
VERTEX
  5
16C
100
AcDbEntity
  8
___C____1
  6
____1
 62
    18
100
AcDbVertex
100
AcDb2dVertex
 10
12.11101
 20
18.044971
 30
0.0
  0
VERTEX
  5
16D
100
AcDbEntity
  8
___C____1
  6
____1
 62
    18
100
AcDbVertex
100
AcDb2dVertex
 10
12.128644
 20
17.967204
 30
0.0
  0
VERTEX
  5
16E
100
AcDbEntity
  8
___C____1
  6
____1
 62
    18
100
AcDbVertex
100
AcDb2dVertex
 10
12.138827
 20
17.869405
 30
0.0
  0
VERTEX
  5
16F
100
AcDbEntity
  8
___C____1
  6
____1
 62
    18
100
AcDbVertex
100
AcDb2dVertex
 10
12.137411
 20
17.750573
 30
0.0
  0
VERTEX
  5
170
100
AcDbEntity
  8
___C____1
  6
____1
 62
    18
100
AcDbVertex
100
AcDb2dVertex
 10
12.120248
 20
17.609703
 30
0.0
  0
VERTEX
  5
171
100
AcDbEntity
  8
___C____1
  6
____1
 62
    18
100
AcDbVertex
100
AcDb2dVertex
 10
12.08319
 20
17.445793
 30
0.0
  0
VERTEX
  5
172
100
AcDbEntity
  8
___C____1
  6
____1
 62
    18
100
AcDbVertex
100
AcDb2dVertex
 10
12.022089
 20
17.257839
 30
0.0
  0
VERTEX
  5
173
100
AcDbEntity
  8
___C____1
  6
____1
 62
    18
100
AcDbVertex
100
AcDb2dVertex
 10
11.932795
 20
17.044839
 30
0.0
  0
VERTEX
  5
174
100
AcDbEntity
  8
___C____1
  6
____1
 62
    18
100
AcDbVertex
100
AcDb2dVertex
 10
11.811162
 20
16.805788
 30
0.0
  0
VERTEX
  5
175
100
AcDbEntity
  8
___C____1
  6
____1
 62
    18
100
AcDbVertex
100
AcDb2dVertex
 10
11.653041
 20
16.539684
 30
0.0
  0
VERTEX
  5
176
100
AcDbEntity
  8
___C____1
  6
____1
 62
    18
100
AcDbVertex
100
AcDb2dVertex
 10
11.454284
 20
16.245525
 30
0.0
  0
VERTEX
  5
177
100
AcDbEntity
  8
___C____1
  6
____1
 62
    18
100
AcDbVertex
100
AcDb2dVertex
 10
11.210742
 20
15.922305
 30
0.0
  0
VERTEX
  5
178
100
AcDbEntity
  8
___C____1
  6
____1
 62
    18
100
AcDbVertex
100
AcDb2dVertex
 10
10.918267
 20
15.569024
 30
0.0
  0
VERTEX
  5
179
100
AcDbEntity
  8
___C____1
  6
____1
 62
    18
100
AcDbVertex
100
AcDb2dVertex
 10
10.572711
 20
15.184676
 30
0.0
  0
VERTEX
  5
17A
100
AcDbEntity
  8
___C____1
  6
____1
 62
    18
100
AcDbVertex
100
AcDb2dVertex
 10
10.169926
 20
14.76826
 30
0.0
  0
SEQEND
  5
17B
100
AcDbEntity
  8
___C____1
  6
____1
 62
    18
  0
POLYLINE
  5
17C
100
AcDbEntity
  8
___C____1
  6
____1
 62
    18
100
AcDb2dPolyline
 66
     1
 10
0.0
 20
0.0
 30
0.0
  0
VERTEX
  5
17D
100
AcDbEntity
  8
___C____1
  6
____1
 62
    18
100
AcDbVertex
100
AcDb2dVertex
 10
8.022109
 20
14.515251
 30
0.0
  0
VERTEX
  5
17E
100
AcDbEntity
  8
___C____1
  6
____1
 62
    18
100
AcDbVertex
100
AcDb2dVertex
 10
8.018057
 20
14.536135
 30
0.0
  0
VERTEX
  5
17F
100
AcDbEntity
  8
___C____1
  6
____1
 62
    18
100
AcDbVertex
100
AcDb2dVertex
 10
8.011121
 20
14.598414
 30
0.0
  0
VERTEX
  5
180
100
AcDbEntity
  8
___C____1
  6
____1
 62
    18
100
AcDbVertex
100
AcDb2dVertex
 10
8.009128
 20
14.701525
 30
0.0
  0
VERTEX
  5
181
100
AcDbEntity
  8
___C____1
  6
____1
 62
    18
100
AcDbVertex
100
AcDb2dVertex
 10
8.019906
 20
14.844907
 30
0.0
  0
VERTEX
  5
182
100
AcDbEntity
  8
___C____1
  6
____1
 62
    18
100
AcDbVertex
100
AcDb2dVertex
 10
8.051284
 20
15.027998
 30
0.0
  0
VERTEX
  5
183
100
AcDbEntity
  8
___C____1
  6
____1
 62
    18
100
AcDbVertex
100
AcDb2dVertex
 10
8.11109
 20
15.250235
 30
0.0
  0
VERTEX
  5
184
100
AcDbEntity
  8
___C____1
  6
____1
 62
    18
100
AcDbVertex
100
AcDb2dVertex
 10
8.207152
 20
15.511057
 30
0.0
  0
VERTEX
  5
185
100
AcDbEntity
  8
___C____1
  6
____1
 62
    18
100
AcDbVertex
100
AcDb2dVertex
 10
8.347298
 20
15.809903
 30
0.0
  0
VERTEX
  5
186
100
AcDbEntity
  8
___C____1
  6
____1
 62
    18
100
AcDbVertex
100
AcDb2dVertex
 10
8.539357
 20
16.146209
 30
0.0
  0
VERTEX
  5
187
100
AcDbEntity
  8
___C____1
  6
____1
 62
    18
100
AcDbVertex
100
AcDb2dVertex
 10
8.791155
 20
16.519415
 30
0.0
  0
VERTEX
  5
188
100
AcDbEntity
  8
___C____1
  6
____1
 62
    18
100
AcDbVertex
100
AcDb2dVertex
 10
9.110522
 20
16.928957
 30
0.0
  0
SEQEND
  5
189
100
AcDbEntity
  8
___C____1
  6
____1
 62
    18
  0
POLYLINE
  5
18A
100
AcDbEntity
  8
___C____1
  6
____1
 62
    18
100
AcDb2dPolyline
 66
     1
 10
0.0
 20
0.0
 30
0.0
  0
VERTEX
  5
18B
100
AcDbEntity
  8
___C____1
  6
____1
 62
    18
100
AcDbVertex
100
AcDb2dVertex
 10
8.13287
 20
14.360324
 30
0.0
  0
VERTEX
  5
18C
100
AcDbEntity
  8
___C____1
  6
____1
 62
    18
100
AcDbVertex
100
AcDb2dVertex
 10
8.128058
 20
14.37379
 30
0.0
  0
VERTEX
  5
18D
100
AcDbEntity
  8
___C____1
  6
____1
 62
    18
100
AcDbVertex
100
AcDb2dVertex
 10
8.117272
 20
14.41472
 30
0.0
  0
VERTEX
  5
18E
100
AcDbEntity
  8
___C____1
  6
____1
 62
    18
100
AcDbVertex
100
AcDb2dVertex
 10
8.105991
 20
14.483916
 30
0.0
  0
VERTEX
  5
18F
100
AcDbEntity
  8
___C____1
  6
____1
 62
    18
100
AcDbVertex
100
AcDb2dVertex
 10
8.099695
 20
14.582182
 30
0.0
  0
VERTEX
  5
190
100
AcDbEntity
  8
___C____1
  6
____1
 62
    18
100
AcDbVertex
100
AcDb2dVertex
 10
8.103861
 20
14.710318
 30
0.0
  0
VERTEX
  5
191
100
AcDbEntity
  8
___C____1
  6
____1
 62
    18
100
AcDbVertex
100
AcDb2dVertex
 10
8.123968
 20
14.869127
 30
0.0
  0
VERTEX
  5
192
100
AcDbEntity
  8
___C____1
  6
____1
 62
    18
100
AcDbVertex
100
AcDb2dVertex
 10
8.165494
 20
15.05941
 30
0.0
  0
VERTEX
  5
193
100
AcDbEntity
  8
___C____1
  6
____1
 62
    18
100
AcDbVertex
100
AcDb2dVertex
 10
8.233918
 20
15.28197
 30
0.0
  0
VERTEX
  5
194
100
AcDbEntity
  8
___C____1
  6
____1
 62
    18
100
AcDbVertex
100
AcDb2dVertex
 10
8.334718
 20
15.537608
 30
0.0
  0
VERTEX
  5
195
100
AcDbEntity
  8
___C____1
  6
____1
 62
    18
100
AcDbVertex
100
AcDb2dVertex
 10
8.473374
 20
15.827127
 30
0.0
  0
VERTEX
  5
196
100
AcDbEntity
  8
___C____1
  6
____1
 62
    18
100
AcDbVertex
100
AcDb2dVertex
 10
8.655363
 20
16.151328
 30
0.0
  0
VERTEX
  5
197
100
AcDbEntity
  8
___C____1
  6
____1
 62
    18
100
AcDbVertex
100
AcDb2dVertex
 10
8.886163
 20
16.511013
 30
0.0
  0
VERTEX
  5
198
100
AcDbEntity
  8
___C____1
  6
____1
 62
    18
100
AcDbVertex
100
AcDb2dVertex
 10
9.171255
 20
16.906984
 30
0.0
  0
VERTEX
  5
199
100
AcDbEntity
  8
___C____1
  6
____1
 62
    18
100
AcDbVertex
100
AcDb2dVertex
 10
9.516115
 20
17.340043
 30
0.0
  0
SEQEND
  5
19A
100
AcDbEntity
  8
___C____1
  6
____1
 62
    18
  0
POLYLINE
  5
19B
100
AcDbEntity
  8
___C____1
  6
____1
 62
    18
100
AcDb2dPolyline
 66
     1
 10
0.0
 20
0.0
 30
0.0
  0
VERTEX
  5
19C
100
AcDbEntity
  8
___C____1
  6
____1
 62
    18
100
AcDbVertex
100
AcDb2dVertex
 10
10.294725
 20
18.084963
 30
0.0
  0
VERTEX
  5
19D
100
AcDbEntity
  8
___C____1
  6
____1
 62
    18
100
AcDbVertex
100
AcDb2dVertex
 10
10.27052
 20
18.058396
 30
0.0
  0
VERTEX
  5
19E
100
AcDbEntity
  8
___C____1
  6
____1
 62
    18
100
AcDbVertex
100
AcDb2dVertex
 10
10.201904
 20
17.982008
 30
0.0
  0
VERTEX
  5
19F
100
AcDbEntity
  8
___C____1
  6
____1
 62
    18
100
AcDbVertex
100
AcDb2dVertex
 10
10.094876
 20
17.860771
 30
0.0
  0
VERTEX
  5
1A0
100
AcDbEntity
  8
___C____1
  6
____1
 62
    18
100
AcDbVertex
100
AcDb2dVertex
 10
9.955437
 20
17.699658
 30
0.0
  0
VERTEX
  5
1A1
100
AcDbEntity
  8
___C____1
  6
____1
 62
    18
100
AcDbVertex
100
AcDb2dVertex
 10
9.789583
 20
17.503641
 30
0.0
  0
VERTEX
  5
1A2
100
AcDbEntity
  8
___C____1
  6
____1
 62
    18
100
AcDbVertex
100
AcDb2dVertex
 10
9.603317
 20
17.277691
 30
0.0
  0
VERTEX
  5
1A3
100
AcDbEntity
  8
___C____1
  6
____1
 62
    18
100
AcDbVertex
100
AcDb2dVertex
 10
9.402635
 20
17.026781
 30
0.0
  0
VERTEX
  5
1A4
100
AcDbEntity
  8
___C____1
  6
____1
 62
    18
100
AcDbVertex
100
AcDb2dVertex
 10
9.193538
 20
16.755882
 30
0.0
  0
VERTEX
  5
1A5
100
AcDbEntity
  8
___C____1
  6
____1
 62
    18
100
AcDbVertex
100
AcDb2dVertex
 10
8.982025
 20
16.469967
 30
0.0
  0
VERTEX
  5
1A6
100
AcDbEntity
  8
___C____1
  6
____1
 62
    18
100
AcDbVertex
100
AcDb2dVertex
 10
8.774095
 20
16.174008
 30
0.0
  0
VERTEX
  5
1A7
100
AcDbEntity
  8
___C____1
  6
____1
 62
    18
100
AcDbVertex
100
AcDb2dVertex
 10
8.575748
 20
15.872976
 30
0.0
  0
VERTEX
  5
1A8
100
AcDbEntity
  8
___C____1
  6
____1
 62
    18
100
AcDbVertex
100
AcDb2dVertex
 10
8.392982
 20
15.571844
 30
0.0
  0
VERTEX
  5
1A9
100
AcDbEntity
  8
___C____1
  6
____1
 62
    18
100
AcDbVertex
100
AcDb2dVertex
 10
8.231797
 20
15.275583
 30
0.0
  0
SEQEND
  5
1AA
100
AcDbEntity
  8
___C____1
  6
____1
 62
    18
  0
POLYLINE
  5
1AB
100
AcDbEntity
  8
___C____1
  6
____1
 62
    18
100
AcDb2dPolyline
 66
     1
 10
0.0
 20
0.0
 30
0.0
  0
VERTEX
  5
1AC
100
AcDbEntity
  8
___C____1
  6
____1
 62
    18
100
AcDbVertex
100
AcDb2dVertex
 10
8.106049
 20
14.734943
 30
0.0
  0
VERTEX
  5
1AD
100
AcDbEntity
  8
___C____1
  6
____1
 62
    18
100
AcDbVertex
100
AcDb2dVertex
 10
8.115898
 20
14.64391
 30
0.0
  0
VERTEX
  5
1AE
100
AcDbEntity
  8
___C____1
  6
____1
 62
    18
100
AcDbVertex
100
AcDb2dVertex
 10
8.178614
 20
14.46253
 30
0.0
  0
VERTEX
  5
1AF
100
AcDbEntity
  8
___C____1
  6
____1
 62
    18
100
AcDbVertex
100
AcDb2dVertex
 10
8.343952
 20
14.328387
 30
0.0
  0
SEQEND
  5
1B0
100
AcDbEntity
  8
___C____1
  6
____1
 62
    18
  0
POLYLINE
  5
1B1
100
AcDbEntity
  8
___C____1
  6
____1
 62
    18
100
AcDb2dPolyline
 66
     1
 10
0.0
 20
0.0
 30
0.0
  0
VERTEX
  5
1B2
100
AcDbEntity
  8
___C____1
  6
____1
 62
    18
100
AcDbVertex
100
AcDb2dVertex
 10
8.854793
 20
14.140907
 30
0.0
  0
VERTEX
  5
1B3
100
AcDbEntity
  8
___C____1
  6
____1
 62
    18
100
AcDbVertex
100
AcDb2dVertex
 10
8.455249
 20
14.336204
 30
0.0
  0
VERTEX
  5
1B4
100
AcDbEntity
  8
___C____1
  6
____1
 62
    18
100
AcDbVertex
100
AcDb2dVertex
 10
8.287133
 20
14.539954
 30
0.0
  0
VERTEX
  5
1B5
100
AcDbEntity
  8
___C____1
  6
____1
 62
    18
100
AcDbVertex
100
AcDb2dVertex
 10
8.252794
 20
14.634105
 30
0.0
  0
VERTEX
  5
1B6
100
AcDbEntity
  8
___C____1
  6
____1
 62
    18
100
AcDbVertex
100
AcDb2dVertex
 10
8.304198
 20
14.567416
 30
0.0
  0
VERTEX
  5
1B7
100
AcDbEntity
  8
___C____1
  6
____1
 62
    18
100
AcDbVertex
100
AcDb2dVertex
 10
8.462848
 20
14.420699
 30
0.0
  0
VERTEX
  5
1B8
100
AcDbEntity
  8
___C____1
  6
____1
 62
    18
100
AcDbVertex
100
AcDb2dVertex
 10
8.735403
 20
14.273982
 30
0.0
  0
VERTEX
  5
1B9
100
AcDbEntity
  8
___C____1
  6
____1
 62
    18
100
AcDbVertex
100
AcDb2dVertex
 10
9.128521
 20
14.207293
 30
0.0
  0
SEQEND
  5
1BA
100
AcDbEntity
  8
___C____1
  6
____1
 62
    18
  0
POLYLINE
  5
1BB
100
AcDbEntity
  8
___C____1
  6
____1
 62
    18
100
AcDb2dPolyline
 66
     1
 10
0.0
 20
0.0
 30
0.0
  0
VERTEX
  5
1BC
100
AcDbEntity
  8
___C____1
  6
____1
 62
    18
100
AcDbVertex
100
AcDb2dVertex
 10
8.503891
 20
14.299449
 30
0.0
  0
VERTEX
  5
1BD
100
AcDbEntity
  8
___C____1
  6
____1
 62
    18
100
AcDbVertex
100
AcDb2dVertex
 10
8.575137
 20
14.262516
 30
0.0
  0
VERTEX
  5
1BE
100
AcDbEntity
  8
___C____1
  6
____1
 62
    18
100
AcDbVertex
100
AcDb2dVertex
 10
8.747287
 20
14.193926
 30
0.0
  0
VERTEX
  5
1BF
100
AcDbEntity
  8
___C____1
  6
____1
 62
    18
100
AcDbVertex
100
AcDb2dVertex
 10
8.957956
 20
14.156993
 30
0.0
  0
SEQEND
  5
1C0
100
AcDbEntity
  8
___C____1
  6
____1
 62
    18
  0
POLYLINE
  5
1C1
100
AcDbEntity
  8
___C____1
  6
____1
 62
    18
100
AcDb2dPolyline
 66
     1
 10
0.0
 20
0.0
 30
0.0
  0
VERTEX
  5
1C2
100
AcDbEntity
  8
___C____1
  6
____1
 62
    18
100
AcDbVertex
100
AcDb2dVertex
 10
8.006075
 20
15.681226
 30
0.0
  0
VERTEX
  5
1C3
100
AcDbEntity
  8
___C____1
  6
____1
 62
    18
100
AcDbVertex
100
AcDb2dVertex
 10
8.027909
 20
15.748587
 30
0.0
  0
VERTEX
  5
1C4
100
AcDbEntity
  8
___C____1
  6
____1
 62
    18
100
AcDbVertex
100
AcDb2dVertex
 10
8.103658
 20
15.937071
 30
0.0
  0
VERTEX
  5
1C5
100
AcDbEntity
  8
___C____1
  6
____1
 62
    18
100
AcDbVertex
100
AcDb2dVertex
 10
8.248696
 20
16.226276
 30
0.0
  0
VERTEX
  5
1C6
100
AcDbEntity
  8
___C____1
  6
____1
 62
    18
100
AcDbVertex
100
AcDb2dVertex
 10
8.478396
 20
16.595801
 30
0.0
  0
SEQEND
  5
1C7
100
AcDbEntity
  8
___C____1
  6
____1
 62
    18
  0
POLYLINE
  5
1C8
100
AcDbEntity
  8
___C____1
  6
____1
 62
    18
100
AcDb2dPolyline
 66
     1
 10
0.0
 20
0.0
 30
0.0
  0
VERTEX
  5
1C9
100
AcDbEntity
  8
___C____1
  6
____1
 62
    18
100
AcDbVertex
100
AcDb2dVertex
 10
8.384465
 20
16.247601
 30
0.0
  0
VERTEX
  5
1CA
100
AcDbEntity
  8
___C____1
  6
____1
 62
    18
100
AcDbVertex
100
AcDb2dVertex
 10
8.423514
 20
16.306374
 30
0.0
  0
VERTEX
  5
1CB
100
AcDbEntity
  8
___C____1
  6
____1
 62
    18
100
AcDbVertex
100
AcDb2dVertex
 10
8.529558
 20
16.464728
 30
0.0
  0
VERTEX
  5
1CC
100
AcDbEntity
  8
___C____1
  6
____1
 62
    18
100
AcDbVertex
100
AcDb2dVertex
 10
8.685943
 20
16.695713
 30
0.0
  0
VERTEX
  5
1CD
100
AcDbEntity
  8
___C____1
  6
____1
 62
    18
100
AcDbVertex
100
AcDb2dVertex
 10
8.876014
 20
16.972378
 30
0.0
  0
VERTEX
  5
1CE
100
AcDbEntity
  8
___C____1
  6
____1
 62
    18
100
AcDbVertex
100
AcDb2dVertex
 10
9.083116
 20
17.267776
 30
0.0
  0
VERTEX
  5
1CF
100
AcDbEntity
  8
___C____1
  6
____1
 62
    18
100
AcDbVertex
100
AcDb2dVertex
 10
9.290595
 20
17.554955
 30
0.0
  0
VERTEX
  5
1D0
100
AcDbEntity
  8
___C____1
  6
____1
 62
    18
100
AcDbVertex
100
AcDb2dVertex
 10
9.481795
 20
17.806967
 30
0.0
  0
VERTEX
  5
1D1
100
AcDbEntity
  8
___C____1
  6
____1
 62
    18
100
AcDbVertex
100
AcDb2dVertex
 10
9.640063
 20
17.996863
 30
0.0
  0
VERTEX
  5
1D2
100
AcDbEntity
  8
___C____1
  6
____1
 62
    18
100
AcDbVertex
100
AcDb2dVertex
 10
9.748744
 20
18.097691
 30
0.0
  0
SEQEND
  5
1D3
100
AcDbEntity
  8
___C____1
  6
____1
 62
    18
  0
POLYLINE
  5
1D4
100
AcDbEntity
  8
___C____1
  6
____1
 62
    18
100
AcDb2dPolyline
 66
     1
 10
0.0
 20
0.0
 30
0.0
  0
VERTEX
  5
1D5
100
AcDbEntity
  8
___C____1
  6
____1
 62
    18
100
AcDbVertex
100
AcDb2dVertex
 10
8.991357
 20
16.928957
 30
0.0
  0
VERTEX
  5
1D6
100
AcDbEntity
  8
___C____1
  6
____1
 62
    18
100
AcDbVertex
100
AcDb2dVertex
 10
9.021682
 20
16.975067
 30
0.0
  0
VERTEX
  5
1D7
100
AcDbEntity
  8
___C____1
  6
____1
 62
    18
100
AcDbVertex
100
AcDb2dVertex
 10
9.107377
 20
17.1011
 30
0.0
  0
VERTEX
  5
1D8
100
AcDbEntity
  8
___C____1
  6
____1
 62
    18
100
AcDbVertex
100
AcDb2dVertex
 10
9.24052
 20
17.288611
 30
0.0
  0
VERTEX
  5
1D9
100
AcDbEntity
  8
___C____1
  6
____1
 62
    18
100
AcDbVertex
100
AcDb2dVertex
 10
9.413189
 20
17.519157
 30
0.0
  0
VERTEX
  5
1DA
100
AcDbEntity
  8
___C____1
  6
____1
 62
    18
100
AcDbVertex
100
AcDb2dVertex
 10
9.617462
 20
17.774294
 30
0.0
  0
VERTEX
  5
1DB
100
AcDbEntity
  8
___C____1
  6
____1
 62
    18
100
AcDbVertex
100
AcDb2dVertex
 10
9.845419
 20
18.035576
 30
0.0
  0
VERTEX
  5
1DC
100
AcDbEntity
  8
___C____1
  6
____1
 62
    18
100
AcDbVertex
100
AcDb2dVertex
 10
10.089137
 20
18.284559
 30
0.0
  0
VERTEX
  5
1DD
100
AcDbEntity
  8
___C____1
  6
____1
 62
    18
100
AcDbVertex
100
AcDb2dVertex
 10
10.340694
 20
18.5028
 30
0.0
  0
VERTEX
  5
1DE
100
AcDbEntity
  8
___C____1
  6
____1
 62
    18
100
AcDbVertex
100
AcDb2dVertex
 10
10.592169
 20
18.671854
 30
0.0
  0
VERTEX
  5
1DF
100
AcDbEntity
  8
___C____1
  6
____1
 62
    18
100
AcDbVertex
100
AcDb2dVertex
 10
10.835641
 20
18.773276
 30
0.0
  0
VERTEX
  5
1E0
100
AcDbEntity
  8
___C____1
  6
____1
 62
    18
100
AcDbVertex
100
AcDb2dVertex
 10
11.153939
 20
18.822391
 30
0.0
  0
VERTEX
  5
1E1
100
AcDbEntity
  8
___C____1
  6
____1
 62
    18
100
AcDbVertex
100
AcDb2dVertex
 10
11.432227
 20
18.801419
 30
0.0
  0
VERTEX
  5
1E2
100
AcDbEntity
  8
___C____1
  6
____1
 62
    18
100
AcDbVertex
100
AcDb2dVertex
 10
11.670637
 20
18.721277
 30
0.0
  0
VERTEX
  5
1E3
100
AcDbEntity
  8
___C____1
  6
____1
 62
    18
100
AcDbVertex
100
AcDb2dVertex
 10
11.869302
 20
18.592884
 30
0.0
  0
VERTEX
  5
1E4
100
AcDbEntity
  8
___C____1
  6
____1
 62
    18
100
AcDbVertex
100
AcDb2dVertex
 10
12.028354
 20
18.427157
 30
0.0
  0
VERTEX
  5
1E5
100
AcDbEntity
  8
___C____1
  6
____1
 62
    18
100
AcDbVertex
100
AcDb2dVertex
 10
12.147925
 20
18.235015
 30
0.0
  0
VERTEX
  5
1E6
100
AcDbEntity
  8
___C____1
  6
____1
 62
    18
100
AcDbVertex
100
AcDb2dVertex
 10
12.228149
 20
18.027376
 30
0.0
  0
SEQEND
  5
1E7
100
AcDbEntity
  8
___C____1
  6
____1
 62
    18
  0
POLYLINE
  5
1E8
100
AcDbEntity
  8
___C____1
  6
____1
 62
    18
100
AcDb2dPolyline
 66
     1
 10
0.0
 20
0.0
 30
0.0
  0
VERTEX
  5
1E9
100
AcDbEntity
  8
___C____1
  6
____1
 62
    18
100
AcDbVertex
100
AcDb2dVertex
 10
10.261719
 20
18.258301
 30
0.0
  0
VERTEX
  5
1EA
100
AcDbEntity
  8
___C____1
  6
____1
 62
    18
100
AcDbVertex
100
AcDb2dVertex
 10
10.293358
 20
18.292345
 30
0.0
  0
VERTEX
  5
1EB
100
AcDbEntity
  8
___C____1
  6
____1
 62
    18
100
AcDbVertex
100
AcDb2dVertex
 10
10.384189
 20
18.377519
 30
0.0
  0
VERTEX
  5
1EC
100
AcDbEntity
  8
___C____1
  6
____1
 62
    18
100
AcDbVertex
100
AcDb2dVertex
 10
10.528086
 20
18.488392
 30
0.0
  0
VERTEX
  5
1ED
100
AcDbEntity
  8
___C____1
  6
____1
 62
    18
100
AcDbVertex
100
AcDb2dVertex
 10
10.718923
 20
18.599528
 30
0.0
  0
VERTEX
  5
1EE
100
AcDbEntity
  8
___C____1
  6
____1
 62
    18
100
AcDbVertex
100
AcDb2dVertex
 10
10.950574
 20
18.685493
 30
0.0
  0
VERTEX
  5
1EF
100
AcDbEntity
  8
___C____1
  6
____1
 62
    18
100
AcDbVertex
100
AcDb2dVertex
 10
11.216911
 20
18.720854
 30
0.0
  0
VERTEX
  5
1F0
100
AcDbEntity
  8
___C____1
  6
____1
 62
    18
100
AcDbVertex
100
AcDb2dVertex
 10
11.511808
 20
18.680176
 30
0.0
  0
VERTEX
  5
1F1
100
AcDbEntity
  8
___C____1
  6
____1
 62
    18
100
AcDbVertex
100
AcDb2dVertex
 10
11.829139
 20
18.538026
 30
0.0
  0
SEQEND
  5
1F2
100
AcDbEntity
  8
___C____1
  6
____1
 62
    18
  0
POLYLINE
  5
1F3
100
AcDbEntity
  8
___C____1
  6
____1
 62
    18
100
AcDb2dPolyline
 66
     1
 10
0.0
 20
0.0
 30
0.0
  0
VERTEX
  5
1F4
100
AcDbEntity
  8
___C____1
  6
____1
 62
    18
100
AcDbVertex
100
AcDb2dVertex
 10
10.882803
 20
18.891803
 30
0.0
  0
VERTEX
  5
1F5
100
AcDbEntity
  8
___C____1
  6
____1
 62
    18
100
AcDbVertex
100
AcDb2dVertex
 10
10.915801
 20
18.904581
 30
0.0
  0
VERTEX
  5
1F6
100
AcDbEntity
  8
___C____1
  6
____1
 62
    18
100
AcDbVertex
100
AcDb2dVertex
 10
11.00744
 20
18.933363
 30
0.0
  0
VERTEX
  5
1F7
100
AcDbEntity
  8
___C____1
  6
____1
 62
    18
100
AcDbVertex
100
AcDb2dVertex
 10
11.14669
 20
18.963819
 30
0.0
  0
VERTEX
  5
1F8
100
AcDbEntity
  8
___C____1
  6
____1
 62
    18
100
AcDbVertex
100
AcDb2dVertex
 10
11.32252
 20
18.981619
 30
0.0
  0
VERTEX
  5
1F9
100
AcDbEntity
  8
___C____1
  6
____1
 62
    18
100
AcDbVertex
100
AcDb2dVertex
 10
11.523898
 20
18.972434
 30
0.0
  0
VERTEX
  5
1FA
100
AcDbEntity
  8
___C____1
  6
____1
 62
    18
100
AcDbVertex
100
AcDb2dVertex
 10
11.739795
 20
18.921934
 30
0.0
  0
VERTEX
  5
1FB
100
AcDbEntity
  8
___C____1
  6
____1
 62
    18
100
AcDbVertex
100
AcDb2dVertex
 10
11.959178
 20
18.815789
 30
0.0
  0
VERTEX
  5
1FC
100
AcDbEntity
  8
___C____1
  6
____1
 62
    18
100
AcDbVertex
100
AcDb2dVertex
 10
12.171018
 20
18.639671
 30
0.0
  0
VERTEX
  5
1FD
100
AcDbEntity
  8
___C____1
  6
____1
 62
    18
100
AcDbVertex
100
AcDb2dVertex
 10
12.364284
 20
18.379249
 30
0.0
  0
VERTEX
  5
1FE
100
AcDbEntity
  8
___C____1
  6
____1
 62
    18
100
AcDbVertex
100
AcDb2dVertex
 10
12.527944
 20
18.020193
 30
0.0
  0
VERTEX
  5
1FF
100
AcDbEntity
  8
___C____1
  6
____1
 62
    18
100
AcDbVertex
100
AcDb2dVertex
 10
12.542147
 20
17.951973
 30
0.0
  0
VERTEX
  5
200
100
AcDbEntity
  8
___C____1
  6
____1
 62
    18
100
AcDbVertex
100
AcDb2dVertex
 10
12.561053
 20
17.763506
 30
0.0
  0
VERTEX
  5
201
100
AcDbEntity
  8
___C____1
  6
____1
 62
    18
100
AcDbVertex
100
AcDb2dVertex
 10
12.549107
 20
17.479083
 30
0.0
  0
VERTEX
  5
202
100
AcDbEntity
  8
___C____1
  6
____1
 62
    18
100
AcDbVertex
100
AcDb2dVertex
 10
12.470753
 20
17.122994
 30
0.0
  0
VERTEX
  5
203
100
AcDbEntity
  8
___C____1
  6
____1
 62
    18
100
AcDbVertex
100
AcDb2dVertex
 10
12.290435
 20
16.719531
 30
0.0
  0
SEQEND
  5
204
100
AcDbEntity
  8
___C____1
  6
____1
 62
    18
  0
POLYLINE
  5
205
100
AcDbEntity
  8
___C____1
  6
____1
 62
    18
100
AcDb2dPolyline
 66
     1
 10
0.0
 20
0.0
 30
0.0
  0
VERTEX
  5
206
100
AcDbEntity
  8
___C____1
  6
____1
 62
    18
100
AcDbVertex
100
AcDb2dVertex
 10
11.915541
 20
18.711057
 30
0.0
  0
VERTEX
  5
207
100
AcDbEntity
  8
___C____1
  6
____1
 62
    18
100
AcDbVertex
100
AcDb2dVertex
 10
11.930154
 20
18.703941
 30
0.0
  0
VERTEX
  5
208
100
AcDbEntity
  8
___C____1
  6
____1
 62
    18
100
AcDbVertex
100
AcDb2dVertex
 10
11.970205
 20
18.681928
 30
0.0
  0
VERTEX
  5
209
100
AcDbEntity
  8
___C____1
  6
____1
 62
    18
100
AcDbVertex
100
AcDb2dVertex
 10
12.030016
 20
18.644014
 30
0.0
  0
VERTEX
  5
20A
100
AcDbEntity
  8
___C____1
  6
____1
 62
    18
100
AcDbVertex
100
AcDb2dVertex
 10
12.103906
 20
18.589201
 30
0.0
  0
VERTEX
  5
20B
100
AcDbEntity
  8
___C____1
  6
____1
 62
    18
100
AcDbVertex
100
AcDb2dVertex
 10
12.186197
 20
18.516485
 30
0.0
  0
VERTEX
  5
20C
100
AcDbEntity
  8
___C____1
  6
____1
 62
    18
100
AcDbVertex
100
AcDb2dVertex
 10
12.271208
 20
18.424867
 30
0.0
  0
VERTEX
  5
20D
100
AcDbEntity
  8
___C____1
  6
____1
 62
    18
100
AcDbVertex
100
AcDb2dVertex
 10
12.353261
 20
18.313346
 30
0.0
  0
VERTEX
  5
20E
100
AcDbEntity
  8
___C____1
  6
____1
 62
    18
100
AcDbVertex
100
AcDb2dVertex
 10
12.426675
 20
18.180919
 30
0.0
  0
VERTEX
  5
20F
100
AcDbEntity
  8
___C____1
  6
____1
 62
    18
100
AcDbVertex
100
AcDb2dVertex
 10
12.485772
 20
18.026587
 30
0.0
  0
VERTEX
  5
210
100
AcDbEntity
  8
___C____1
  6
____1
 62
    18
100
AcDbVertex
100
AcDb2dVertex
 10
12.524872
 20
17.849347
 30
0.0
  0
VERTEX
  5
211
100
AcDbEntity
  8
___C____1
  6
____1
 62
    18
100
AcDbVertex
100
AcDb2dVertex
 10
12.538296
 20
17.648199
 30
0.0
  0
VERTEX
  5
212
100
AcDbEntity
  8
___C____1
  6
____1
 62
    18
100
AcDbVertex
100
AcDb2dVertex
 10
12.520363
 20
17.422142
 30
0.0
  0
VERTEX
  5
213
100
AcDbEntity
  8
___C____1
  6
____1
 62
    18
100
AcDbVertex
100
AcDb2dVertex
 10
12.465395
 20
17.170175
 30
0.0
  0
VERTEX
  5
214
100
AcDbEntity
  8
___C____1
  6
____1
 62
    18
100
AcDbVertex
100
AcDb2dVertex
 10
12.367712
 20
16.891296
 30
0.0
  0
VERTEX
  5
215
100
AcDbEntity
  8
___C____1
  6
____1
 62
    18
100
AcDbVertex
100
AcDb2dVertex
 10
12.221635
 20
16.584505
 30
0.0
  0
VERTEX
  5
216
100
AcDbEntity
  8
___C____1
  6
____1
 62
    18
100
AcDbVertex
100
AcDb2dVertex
 10
12.021483
 20
16.2488
 30
0.0
  0
VERTEX
  5
217
100
AcDbEntity
  8
___C____1
  6
____1
 62
    18
100
AcDbVertex
100
AcDb2dVertex
 10
11.761578
 20
15.883181
 30
0.0
  0
VERTEX
  5
218
100
AcDbEntity
  8
___C____1
  6
____1
 62
    18
100
AcDbVertex
100
AcDb2dVertex
 10
11.429767
 20
15.464417
 30
0.0
  0
VERTEX
  5
219
100
AcDbEntity
  8
___C____1
  6
____1
 62
    18
100
AcDbVertex
100
AcDb2dVertex
 10
11.122764
 20
15.105005
 30
0.0
  0
VERTEX
  5
21A
100
AcDbEntity
  8
___C____1
  6
____1
 62
    18
100
AcDbVertex
100
AcDb2dVertex
 10
10.839552
 20
14.800335
 30
0.0
  0
VERTEX
  5
21B
100
AcDbEntity
  8
___C____1
  6
____1
 62
    18
100
AcDbVertex
100
AcDb2dVertex
 10
10.579113
 20
14.545798
 30
0.0
  0
VERTEX
  5
21C
100
AcDbEntity
  8
___C____1
  6
____1
 62
    18
100
AcDbVertex
100
AcDb2dVertex
 10
10.340428
 20
14.336786
 30
0.0
  0
VERTEX
  5
21D
100
AcDbEntity
  8
___C____1
  6
____1
 62
    18
100
AcDbVertex
100
AcDb2dVertex
 10
10.122481
 20
14.168689
 30
0.0
  0
VERTEX
  5
21E
100
AcDbEntity
  8
___C____1
  6
____1
 62
    18
100
AcDbVertex
100
AcDb2dVertex
 10
9.924252
 20
14.036899
 30
0.0
  0
VERTEX
  5
21F
100
AcDbEntity
  8
___C____1
  6
____1
 62
    18
100
AcDbVertex
100
AcDb2dVertex
 10
9.744725
 20
13.936806
 30
0.0
  0
VERTEX
  5
220
100
AcDbEntity
  8
___C____1
  6
____1
 62
    18
100
AcDbVertex
100
AcDb2dVertex
 10
9.582881
 20
13.863803
 30
0.0
  0
VERTEX
  5
221
100
AcDbEntity
  8
___C____1
  6
____1
 62
    18
100
AcDbVertex
100
AcDb2dVertex
 10
9.437704
 20
13.813279
 30
0.0
  0
VERTEX
  5
222
100
AcDbEntity
  8
___C____1
  6
____1
 62
    18
100
AcDbVertex
100
AcDb2dVertex
 10
9.308173
 20
13.780627
 30
0.0
  0
VERTEX
  5
223
100
AcDbEntity
  8
___C____1
  6
____1
 62
    18
100
AcDbVertex
100
AcDb2dVertex
 10
9.193273
 20
13.761237
 30
0.0
  0
VERTEX
  5
224
100
AcDbEntity
  8
___C____1
  6
____1
 62
    18
100
AcDbVertex
100
AcDb2dVertex
 10
9.091985
 20
13.750501
 30
0.0
  0
VERTEX
  5
225
100
AcDbEntity
  8
___C____1
  6
____1
 62
    18
100
AcDbVertex
100
AcDb2dVertex
 10
9.003291
 20
13.743808
 30
0.0
  0
VERTEX
  5
226
100
AcDbEntity
  8
___C____1
  6
____1
 62
    18
100
AcDbVertex
100
AcDb2dVertex
 10
8.926174
 20
13.736552
 30
0.0
  0
SEQEND
  5
227
100
AcDbEntity
  8
___C____1
  6
____1
 62
    18
  0
POLYLINE
  5
228
100
AcDbEntity
  8
___C____1
  6
____1
 62
    18
100
AcDb2dPolyline
 66
     1
 10
0.0
 20
0.0
 30
0.0
  0
VERTEX
  5
229
100
AcDbEntity
  8
___C____1
  6
____1
 62
    18
100
AcDbVertex
100
AcDb2dVertex
 10
8.505027
 20
13.800737
 30
0.0
  0
VERTEX
  5
22A
100
AcDbEntity
  8
___C____1
  6
____1
 62
    18
100
AcDbVertex
100
AcDb2dVertex
 10
8.517859
 20
13.794599
 30
0.0
  0
VERTEX
  5
22B
100
AcDbEntity
  8
___C____1
  6
____1
 62
    18
100
AcDbVertex
100
AcDb2dVertex
 10
8.556003
 20
13.779704
 30
0.0
  0
VERTEX
  5
22C
100
AcDbEntity
  8
___C____1
  6
____1
 62
    18
100
AcDbVertex
100
AcDb2dVertex
 10
8.618929
 20
13.761328
 30
0.0
  0
VERTEX
  5
22D
100
AcDbEntity
  8
___C____1
  6
____1
 62
    18
100
AcDbVertex
100
AcDb2dVertex
 10
8.706111
 20
13.744745
 30
0.0
  0
VERTEX
  5
22E
100
AcDbEntity
  8
___C____1
  6
____1
 62
    18
100
AcDbVertex
100
AcDb2dVertex
 10
8.81702
 20
13.735233
 30
0.0
  0
VERTEX
  5
22F
100
AcDbEntity
  8
___C____1
  6
____1
 62
    18
100
AcDbVertex
100
AcDb2dVertex
 10
8.951128
 20
13.738066
 30
0.0
  0
VERTEX
  5
230
100
AcDbEntity
  8
___C____1
  6
____1
 62
    18
100
AcDbVertex
100
AcDb2dVertex
 10
9.107905
 20
13.758522
 30
0.0
  0
VERTEX
  5
231
100
AcDbEntity
  8
___C____1
  6
____1
 62
    18
100
AcDbVertex
100
AcDb2dVertex
 10
9.286825
 20
13.801875
 30
0.0
  0
VERTEX
  5
232
100
AcDbEntity
  8
___C____1
  6
____1
 62
    18
100
AcDbVertex
100
AcDb2dVertex
 10
9.487358
 20
13.873401
 30
0.0
  0
VERTEX
  5
233
100
AcDbEntity
  8
___C____1
  6
____1
 62
    18
100
AcDbVertex
100
AcDb2dVertex
 10
9.708977
 20
13.978378
 30
0.0
  0
VERTEX
  5
234
100
AcDbEntity
  8
___C____1
  6
____1
 62
    18
100
AcDbVertex
100
AcDb2dVertex
 10
9.951152
 20
14.122079
 30
0.0
  0
VERTEX
  5
235
100
AcDbEntity
  8
___C____1
  6
____1
 62
    18
100
AcDbVertex
100
AcDb2dVertex
 10
10.213357
 20
14.309782
 30
0.0
  0
VERTEX
  5
236
100
AcDbEntity
  8
___C____1
  6
____1
 62
    18
100
AcDbVertex
100
AcDb2dVertex
 10
10.495062
 20
14.546762
 30
0.0
  0
VERTEX
  5
237
100
AcDbEntity
  8
___C____1
  6
____1
 62
    18
100
AcDbVertex
100
AcDb2dVertex
 10
10.79574
 20
14.838295
 30
0.0
  0
VERTEX
  5
238
100
AcDbEntity
  8
___C____1
  6
____1
 62
    18
100
AcDbVertex
100
AcDb2dVertex
 10
11.114861
 20
15.189656
 30
0.0
  0
VERTEX
  5
239
100
AcDbEntity
  8
___C____1
  6
____1
 62
    18
100
AcDbVertex
100
AcDb2dVertex
 10
11.451899
 20
15.606123
 30
0.0
  0
VERTEX
  5
23A
100
AcDbEntity
  8
___C____1
  6
____1
 62
    18
100
AcDbVertex
100
AcDb2dVertex
 10
11.48274
 20
15.646563
 30
0.0
  0
VERTEX
  5
23B
100
AcDbEntity
  8
___C____1
  6
____1
 62
    18
100
AcDbVertex
100
AcDb2dVertex
 10
11.565905
 20
15.759801
 30
0.0
  0
VERTEX
  5
23C
100
AcDbEntity
  8
___C____1
  6
____1
 62
    18
100
AcDbVertex
100
AcDb2dVertex
 10
11.687356
 20
15.933713
 30
0.0
  0
VERTEX
  5
23D
100
AcDbEntity
  8
___C____1
  6
____1
 62
    18
100
AcDbVertex
100
AcDb2dVertex
 10
11.833057
 20
16.156176
 30
0.0
  0
VERTEX
  5
23E
100
AcDbEntity
  8
___C____1
  6
____1
 62
    18
100
AcDbVertex
100
AcDb2dVertex
 10
11.988969
 20
16.415066
 30
0.0
  0
VERTEX
  5
23F
100
AcDbEntity
  8
___C____1
  6
____1
 62
    18
100
AcDbVertex
100
AcDb2dVertex
 10
12.141055
 20
16.698259
 30
0.0
  0
VERTEX
  5
240
100
AcDbEntity
  8
___C____1
  6
____1
 62
    18
100
AcDbVertex
100
AcDb2dVertex
 10
12.275279
 20
16.993633
 30
0.0
  0
VERTEX
  5
241
100
AcDbEntity
  8
___C____1
  6
____1
 62
    18
100
AcDbVertex
100
AcDb2dVertex
 10
12.377602
 20
17.289062
 30
0.0
  0
VERTEX
  5
242
100
AcDbEntity
  8
___C____1
  6
____1
 62
    18
100
AcDbVertex
100
AcDb2dVertex
 10
12.433986
 20
17.572425
 30
0.0
  0
VERTEX
  5
243
100
AcDbEntity
  8
___C____1
  6
____1
 62
    18
100
AcDbVertex
100
AcDb2dVertex
 10
12.430396
 20
17.831597
 30
0.0
  0
VERTEX
  5
244
100
AcDbEntity
  8
___C____1
  6
____1
 62
    18
100
AcDbVertex
100
AcDb2dVertex
 10
12.352793
 20
18.054455
 30
0.0
  0
SEQEND
  5
245
100
AcDbEntity
  8
___C____1
  6
____1
 62
    18
  0
POLYLINE
  5
246
100
AcDbEntity
  8
___C____1
  6
____1
 62
    18
100
AcDb2dPolyline
 66
     1
 10
0.0
 20
0.0
 30
0.0
  0
VERTEX
  5
247
100
AcDbEntity
  8
___C____1
  6
____1
 62
    18
100
AcDbVertex
100
AcDb2dVertex
 10
12.437096
 20
17.60685
 30
0.0
  0
VERTEX
  5
248
100
AcDbEntity
  8
___C____1
  6
____1
 62
    18
100
AcDbVertex
100
AcDb2dVertex
 10
12.443972
 20
17.552519
 30
0.0
  0
VERTEX
  5
249
100
AcDbEntity
  8
___C____1
  6
____1
 62
    18
100
AcDbVertex
100
AcDb2dVertex
 10
12.42841
 20
17.381633
 30
0.0
  0
VERTEX
  5
24A
100
AcDbEntity
  8
___C____1
  6
____1
 62
    18
100
AcDbVertex
100
AcDb2dVertex
 10
12.336128
 20
17.082353
 30
0.0
  0
VERTEX
  5
24B
100
AcDbEntity
  8
___C____1
  6
____1
 62
    18
100
AcDbVertex
100
AcDb2dVertex
 10
12.112843
 20
16.64284
 30
0.0
  0
SEQEND
  5
24C
100
AcDbEntity
  8
___C____1
  6
____1
 62
    18
  0
POLYLINE
  5
24D
100
AcDbEntity
  8
___C____1
  6
____1
 62
    18
100
AcDb2dPolyline
 66
     1
 10
0.0
 20
0.0
 30
0.0
  0
VERTEX
  5
24E
100
AcDbEntity
  8
___C____1
  6
____1
 62
    18
100
AcDbVertex
100
AcDb2dVertex
 10
10.30268
 20
15.062643
 30
0.0
  0
VERTEX
  5
24F
100
AcDbEntity
  8
___C____1
  6
____1
 62
    18
100
AcDbVertex
100
AcDb2dVertex
 10
10.338955
 20
15.124406
 30
0.0
  0
VERTEX
  5
250
100
AcDbEntity
  8
___C____1
  6
____1
 62
    18
100
AcDbVertex
100
AcDb2dVertex
 10
10.437912
 20
15.291773
 30
0.0
  0
VERTEX
  5
251
100
AcDbEntity
  8
___C____1
  6
____1
 62
    18
100
AcDbVertex
100
AcDb2dVertex
 10
10.584753
 20
15.537858
 30
0.0
  0
VERTEX
  5
252
100
AcDbEntity
  8
___C____1
  6
____1
 62
    18
100
AcDbVertex
100
AcDb2dVertex
 10
10.76468
 20
15.835777
 30
0.0
  0
VERTEX
  5
253
100
AcDbEntity
  8
___C____1
  6
____1
 62
    18
100
AcDbVertex
100
AcDb2dVertex
 10
10.962893
 20
16.158645
 30
0.0
  0
VERTEX
  5
254
100
AcDbEntity
  8
___C____1
  6
____1
 62
    18
100
AcDbVertex
100
AcDb2dVertex
 10
11.164595
 20
16.479577
 30
0.0
  0
VERTEX
  5
255
100
AcDbEntity
  8
___C____1
  6
____1
 62
    18
100
AcDbVertex
100
AcDb2dVertex
 10
11.354987
 20
16.771689
 30
0.0
  0
VERTEX
  5
256
100
AcDbEntity
  8
___C____1
  6
____1
 62
    18
100
AcDbVertex
100
AcDb2dVertex
 10
11.754759
 20
17.283839
 30
0.0
  0
VERTEX
  5
257
100
AcDbEntity
  8
___C____1
  6
____1
 62
    18
100
AcDbVertex
100
AcDb2dVertex
 10
11.821318
 20
17.228456
 30
0.0
  0
VERTEX
  5
258
100
AcDbEntity
  8
___C____1
  6
____1
 62
    18
100
AcDbVertex
100
AcDb2dVertex
 10
11.771867
 20
17.164143
 30
0.0
  0
VERTEX
  5
259
100
AcDbEntity
  8
___C____1
  6
____1
 62
    18
100
AcDbVertex
100
AcDb2dVertex
 10
11.634344
 20
16.990521
 30
0.0
  0
VERTEX
  5
25A
100
AcDbEntity
  8
___C____1
  6
____1
 62
    18
100
AcDbVertex
100
AcDb2dVertex
 10
11.424992
 20
16.736566
 30
0.0
  0
VERTEX
  5
25B
100
AcDbEntity
  8
___C____1
  6
____1
 62
    18
100
AcDbVertex
100
AcDb2dVertex
 10
11.365359
 20
16.643372
 30
0.0
  0
VERTEX
  5
25C
100
AcDbEntity
  8
___C____1
  6
____1
 62
    18
100
AcDbVertex
100
AcDb2dVertex
 10
11.215545
 20
16.407873
 30
0.0
  0
VERTEX
  5
25D
100
AcDbEntity
  8
___C____1
  6
____1
 62
    18
100
AcDbVertex
100
AcDb2dVertex
 10
11.019177
 20
16.096199
 30
0.0
  0
VERTEX
  5
25E
100
AcDbEntity
  8
___C____1
  6
____1
 62
    18
100
AcDbVertex
100
AcDb2dVertex
 10
10.819879
 20
15.774477
 30
0.0
  0
VERTEX
  5
25F
100
AcDbEntity
  8
___C____1
  6
____1
 62
    18
100
AcDbVertex
100
AcDb2dVertex
 10
10.66128
 20
15.508833
 30
0.0
  0
VERTEX
  5
260
100
AcDbEntity
  8
___C____1
  6
____1
 62
    18
100
AcDbVertex
100
AcDb2dVertex
 10
10.587006
 20
15.365397
 30
0.0
  0
SEQEND
  5
261
100
AcDbEntity
  8
___C____1
  6
____1
 62
    18
  0
POLYLINE
  5
262
100
AcDbEntity
  8
___C____1
  6
____1
 62
    18
100
AcDb2dPolyline
 66
     1
 10
0.0
 20
0.0
 30
0.0
 70
     1
  0
VERTEX
  5
263
100
AcDbEntity
  8
___C____1
  6
____1
 62
    18
100
AcDbVertex
100
AcDb2dVertex
 10
11.834893
 20
17.220017
 30
0.0
  0
VERTEX
  5
264
100
AcDbEntity
  8
___C____1
  6
____1
 62
    18
100
AcDbVertex
100
AcDb2dVertex
 10
11.741046
 20
17.29245
 30
0.0
  0
VERTEX
  5
265
100
AcDbEntity
  8
___C____1
  6
____1
 62
    18
100
AcDbVertex
100
AcDb2dVertex
 10
11.769226
 20
17.329019
 30
0.0
  0
VERTEX
  5
266
100
AcDbEntity
  8
___C____1
  6
____1
 62
    18
100
AcDbVertex
100
AcDb2dVertex
 10
11.863073
 20
17.256622
 30
0.0
  0
SEQEND
  5
267
100
AcDbEntity
  8
___C____1
  6
____1
 62
    18
  0
POLYLINE
  5
268
100
AcDbEntity
  8
___C____1
  6
____1
 62
    18
100
AcDb2dPolyline
 66
     1
 10
0.0
 20
0.0
 30
0.0
 70
     1
  0
VERTEX
  5
269
100
AcDbEntity
  8
___C____1
  6
____1
 62
    18
100
AcDbVertex
100
AcDb2dVertex
 10
11.907791
 20
17.354048
 30
0.0
  0
VERTEX
  5
26A
100
AcDbEntity
  8
___C____1
  6
____1
 62
    18
100
AcDbVertex
100
AcDb2dVertex
 10
11.852151
 20
17.396975
 30
0.0
  0
VERTEX
  5
26B
100
AcDbEntity
  8
___C____1
  6
____1
 62
    18
100
AcDbVertex
100
AcDb2dVertex
 10
11.788315
 20
17.314294
 30
0.0
  0
VERTEX
  5
26C
100
AcDbEntity
  8
___C____1
  6
____1
 62
    18
100
AcDbVertex
100
AcDb2dVertex
 10
11.843987
 20
17.27135
 30
0.0
  0
SEQEND
  5
26D
100
AcDbEntity
  8
___C____1
  6
____1
 62
    18
  0
POLYLINE
  5
26E
100
AcDbEntity
  8
___C____1
  6
____1
 62
    18
100
AcDb2dPolyline
 66
     1
 10
0.0
 20
0.0
 30
0.0
 70
     1
  0
VERTEX
  5
26F
100
AcDbEntity
  8
___C____1
  6
____1
 62
    18
100
AcDbVertex
100
AcDb2dVertex
 10
11.982929
 20
17.494042
 30
0.0
  0
VERTEX
  5
270
100
AcDbEntity
  8
___C____1
  6
____1
 62
    18
100
AcDbVertex
100
AcDb2dVertex
 10
11.96856
 20
17.505084
 30
0.0
  0
VERTEX
  5
271
100
AcDbEntity
  8
___C____1
  6
____1
 62
    18
100
AcDbVertex
100
AcDb2dVertex
 10
11.872788
 20
17.381008
 30
0.0
  0
VERTEX
  5
272
100
AcDbEntity
  8
___C____1
  6
____1
 62
    18
100
AcDbVertex
100
AcDb2dVertex
 10
11.887153
 20
17.370015
 30
0.0
  0
SEQEND
  5
273
100
AcDbEntity
  8
___C____1
  6
____1
 62
    18
  0
POLYLINE
  5
274
100
AcDbEntity
  8
___C____1
  6
____1
 62
    18
100
AcDb2dPolyline
 66
     1
 10
0.0
 20
0.0
 30
0.0
 70
     1
  0
VERTEX
  5
275
100
AcDbEntity
  8
___C____1
  6
____1
 62
    18
100
AcDbVertex
100
AcDb2dVertex
 10
11.77467
 20
17.324835
 30
0.0
  0
VERTEX
  5
276
100
AcDbEntity
  8
___C____1
  6
____1
 62
    18
100
AcDbVertex
100
AcDb2dVertex
 10
11.774603
 20
17.398749
 30
0.0
  0
VERTEX
  5
277
100
AcDbEntity
  8
___C____1
  6
____1
 62
    18
100
AcDbVertex
100
AcDb2dVertex
 10
11.745216
 20
17.419574
 30
0.0
  0
VERTEX
  5
278
100
AcDbEntity
  8
___C____1
  6
____1
 62
    18
100
AcDbVertex
100
AcDb2dVertex
 10
11.734224
 20
17.554451
 30
0.0
  0
VERTEX
  5
279
100
AcDbEntity
  8
___C____1
  6
____1
 62
    18
100
AcDbVertex
100
AcDb2dVertex
 10
11.748765
 20
17.560325
 30
0.0
  0
VERTEX
  5
27A
100
AcDbEntity
  8
___C____1
  6
____1
 62
    18
100
AcDbVertex
100
AcDb2dVertex
 10
11.753313
 20
17.475849
 30
0.0
  0
VERTEX
  5
27B
100
AcDbEntity
  8
___C____1
  6
____1
 62
    18
100
AcDbVertex
100
AcDb2dVertex
 10
11.765335
 20
17.470391
 30
0.0
  0
VERTEX
  5
27C
100
AcDbEntity
  8
___C____1
  6
____1
 62
    18
100
AcDbVertex
100
AcDb2dVertex
 10
11.777496
 20
17.482601
 30
0.0
  0
VERTEX
  5
27D
100
AcDbEntity
  8
___C____1
  6
____1
 62
    18
100
AcDbVertex
100
AcDb2dVertex
 10
11.772948
 20
17.5673
 30
0.0
  0
VERTEX
  5
27E
100
AcDbEntity
  8
___C____1
  6
____1
 62
    18
100
AcDbVertex
100
AcDb2dVertex
 10
11.787313
 20
17.572193
 30
0.0
  0
VERTEX
  5
27F
100
AcDbEntity
  8
___C____1
  6
____1
 62
    18
100
AcDbVertex
100
AcDb2dVertex
 10
11.806505
 20
17.430891
 30
0.0
  0
VERTEX
  5
280
100
AcDbEntity
  8
___C____1
  6
____1
 62
    18
100
AcDbVertex
100
AcDb2dVertex
 10
11.79269
 20
17.408069
 30
0.0
  0
VERTEX
  5
281
100
AcDbEntity
  8
___C____1
  6
____1
 62
    18
100
AcDbVertex
100
AcDb2dVertex
 10
11.788866
 20
17.322679
 30
0.0
  0
SEQEND
  5
282
100
AcDbEntity
  8
___C____1
  6
____1
 62
    18
  0
MTEXT
  5
283
100
AcDbEntity
  8
___C____1
  6
____1
 62
    18
100
AcDbMText
 10
12.050486
 20
15.321127
 30
0.0
 40
0.423334
 41
0.0
 71
     7
 72
     1
  1
{15m}
  0
ENDSEC
  0
SECTION
  2
OBJECTS
  0
DICTIONARY
  5
19
100
AcDbDictionary
  3
ACAD_GROUP
350
1A
  3
ACAD_MLINESTYLE
350
1B
  0
DICTIONARY
  5
1A
102
{ACAD_REACTORS
330
19
102
}
100
AcDbDictionary
  0
DICTIONARY
  5
1B
102
{ACAD_REACTORS
330
19
102
}
100
AcDbDictionary
  3
STANDARD
350
1C
  0
MLINESTYLE
  5
1C
102
{ACAD_REACTORS
330
1B
102
}
100
AcDbMlineStyle
  2
STANDARD
 70
     0
  3

 62
     0
 51
90.0
 52
90.0
 71
     2
 49
0.5
 62
   256
  6
BYLAYER
 49
-0.5
 62
   256
  6
BYLAYER
  0
DICTIONARY
  5
22
102
{ACAD_REACTORS
330
19
102
}
100
AcDbDictionary
  0
ENDSEC
  0
EOF
