  0
SECTION
  2
HEADER
  9
$ACADVER
  1
AC1012
  9
$DWGCODEPAGE
  3
ansi_1252
  9
$INSBASE
 10
0.0
 20
0.0
 30
0.0
  9
$EXTMIN
 10
8.572881
 20
13.393283
 30
0.0
  9
$EXTMAX
 10
12.270282
 20
19.842791
 30
0.0
  9
$LIMMIN
 10
8.572881
 20
13.393283
  9
$LIMMAX
 10
12.270282
 20
19.842791
  9
$ORTHOMODE
 70
     0
  9
$REGENMODE
 70
     1
  9
$FILLMODE
 70
     1
  9
$QTEXTMODE
 70
     0
  9
$MIRRTEXT
 70
     1
  9
$DRAGMODE
 70
     2
  9
$LTSCALE
 40
1.0
  9
$OSMODE
 70
     0
  9
$ATTMODE
 70
     1
  9
$TEXTSIZE
 40
0.2
  9
$TRACEWID
 40
0.05
  9
$TEXTSTYLE
  7
STANDARD
  9
$CLAYER
  8
0
  9
$CELTYPE
  6
CONTINUOUS
  9
$CECOLOR
 62
   256
  9
$CELTSCALE
 40
1.0
  9
$DELOBJ
 70
     1
  9
$DISPSILH
 70
     0
  9
$DIMSCALE
 40
1.0
  9
$DIMASZ
 40
0.18
  9
$DIMEXO
 40
0.0625
  9
$DIMDLI
 40
0.38
  9
$DIMRND
 40
0.0
  9
$DIMDLE
 40
0.0
  9
$DIMEXE
 40
0.18
  9
$DIMTP
 40
0.0
  9
$DIMTM
 40
0.0
  9
$DIMTXT
 40
0.18
  9
$DIMCEN
 40
0.09
  9
$DIMTSZ
 40
0.0
  9
$DIMTOL
 70
     0
  9
$DIMLIM
 70
     0
  9
$DIMTIH
 70
     1
  9
$DIMTOH
 70
     1
  9
$DIMSE1
 70
     0
  9
$DIMSE2
 70
     0
  9
$DIMTAD
 70
     0
  9
$DIMZIN
 70
     0
  9
$DIMBLK
  1

  9
$DIMASO
 70
     1
  9
$DIMSHO
 70
     1
  9
$DIMPOST
  1

  9
$DIMAPOST
  1

  9
$DIMALT
 70
     0
  9
$DIMALTD
 70
     2
  9
$DIMALTF
 40
25.4
  9
$DIMLFAC
 40
1.0
  9
$DIMTOFL
 70
     0
  9
$DIMTVP
 40
0.0
  9
$DIMTIX
 70
     0
  9
$DIMSOXD
 70
     0
  9
$DIMSAH
 70
     0
  9
$DIMBLK1
  1

  9
$DIMBLK2
  1

  9
$DIMSTYLE
  2
STANDARD
  9
$DIMCLRD
 70
     0
  9
$DIMCLRE
 70
     0
  9
$DIMCLRT
 70
     0
  9
$DIMTFAC
 40
1.0
  9
$DIMGAP
 40
0.09
  9
$DIMJUST
 70
     0
  9
$DIMSD1
 70
     0
  9
$DIMSD2
 70
     0
  9
$DIMTOLJ
 70
     1
  9
$DIMTZIN
 70
     0
  9
$DIMALTZ
 70
     0
  9
$DIMALTTZ
 70
     0
  9
$DIMFIT
 70
     3
  9
$DIMUPT
 70
     0
  9
$DIMUNIT
 70
     2
  9
$DIMDEC
 70
     4
  9
$DIMTDEC
 70
     4
  9
$DIMALTU
 70
     2
  9
$DIMALTTD
 70
     2
  9
$DIMTXSTY
  7
STANDARD
  9
$DIMAUNIT
 70
     0
  9
$LUNITS
 70
     2
  9
$LUPREC
 70
     0
  9
$SKETCHINC
 40
24.0
  9
$FILLETRAD
 40
50.0
  9
$AUNITS
 70
     2
  9
$AUPREC
 70
     0
  9
$MENU
  1
acad
  9
$ELEVATION
 40
0.0
  9
$PELEVATION
 40
0.0
  9
$THICKNESS
 40
200.0
  9
$LIMCHECK
 70
     0
  9
$BLIPMODE
 70
     1
  9
$CHAMFERA
 40
0.0
  9
$CHAMFERB
 40
0.0
  9
$CHAMFERC
 40
0.0
  9
$CHAMFERD
 40
0.0
  9
$SKPOLY
 70
     0
  9
$TDCREATE
 40
2453203.772280093
  9
$TDUPDATE
 40
2453203.772280093
  9
$TDINDWG
 40
0.0000000000
  9
$TDUSRTIMER
 40
0.0000000000
  9
$USRTIMER
 70
     1
  9
$ANGBASE
 50
0.0
  9
$ANGDIR
 70
     0
  9
$PDMODE
 70
     0
  9
$PDSIZE
 40
0.0
  9
$PLINEWID
 40
0.0
  9
$COORDS
 70
     0
  9
$SPLFRAME
 70
     0
  9
$SPLINETYPE
 70
     6
  9
$SPLINESEGS
 70
     8
  9
$ATTDIA
 70
     0
  9
$ATTREQ
 70
     1
  9
$HANDLING
 70
     1
  9
$HANDSEED
  5
D6
  9
$SURFTAB1
 70
     6
  9
$SURFTAB2
 70
     6
  9
$SURFTYPE
 70
     6
  9
$SURFU
 70
     6
  9
$SURFV
 70
     6
  9
$UCSNAME
  2

  9
$UCSORG
 10
0.0
 20
0.0
 30
0.0
  9
$UCSXDIR
 10
1.0
 20
0.0
 30
0.0
  9
$UCSYDIR
 10
0.0
 20
1.0
 30
0.0
  9
$PUCSNAME
  2

  9
$PUCSORG
 10
0.0
 20
0.0
 30
0.0
  9
$PUCSXDIR
 10
1.0
 20
0.0
 30
0.0
  9
$PUCSYDIR
 10
0.0
 20
1.0
 30
0.0
  9
$USERI1
 70
     0
  9
$USERI2
 70
     0
  9
$USERI3
 70
     0
  9
$USERI4
 70
     0
  9
$USERI5
 70
     0
  9
$USERR1
 40
0.0
  9
$USERR2
 40
0.0
  9
$USERR3
 40
0.0
  9
$USERR4
 40
0.0
  9
$USERR5
 40
0.0
  9
$WORLDVIEW
 70
     1
  9
$SHADEDGE
 70
     3
  9
$SHADEDIF
 70
    70
  9
$TILEMODE
 70
     1
  9
$MAXACTVP
 70
    16
  9
$PINSBASE
 10
0.0
 20
0.0
 30
0.0
  9
$PLIMCHECK
 70
     0
  9
$PEXTMIN
 10
1.797693E+308
 20
1.797693E+308
 30
1.000000E+20
  9
$PEXTMAX
 10
-1.797693E+308
 20
-1.797693E+308
 30
-1.000000E+20
  9
$PLIMMIN
 10
1.797693E+308
 20
1.797693E+308
  9
$PLIMMAX
 10
-1.797693E+308
 20
-1.797693E+308
  9
$UNITMODE
 70
     0
  9
$VISRETAIN
 70
     0
  9
$PLINEGEN
 70
     1
  9
$PSLTSCALE
 70
     0
  9
$TREEDEPTH
 70
  3020
  9
$PICKSTYLE
 70
     1
  9
$CMLSTYLE
  2
STANDARD
  9
$CMLJUST
 70
     0
  9
$CMLSCALE
 40
1.0
  9
$SAVEIMAGES
 70
     0
  0
ENDSEC
  0
SECTION
  2
CLASSES
  0
CLASS
  1
LWPOLYLINE
  2
AcDbPolyline
  3
"AutoCAD"
 90
        0
280
     0
281
     1
  0
CLASS
  1
IMAGE
  2
AcDbRasterImage
  3
ISM
 90
      127
280
     0
281
     1
  0
CLASS
  1
OLE2FRAME
  2
AcDbOle2Frame
  3
""
 90
        0
280
     0
281
     1
  0
CLASS
  1
HATCH
  2
AcDbHatch
  3
"ACAD_SEDONA"
 90
        0
280
     0
281
     1
  0
CLASS
  1
DICTIONARYVAR
  2
AcDbDictionaryVar
  3
"AutoCAD"
 90
        0
280
     0
281
     0
  0
CLASS
  1
RASTERVARIABLES
  2
AcDbRasterVariables
  3
ISM
 90
        0
280
     0
281
     0
  0
CLASS
  1
IMAGEDEF
  2
AcDbRasterImageDef
  3
ISM
 90
        0
280
     0
281
     0
  0
CLASS
  1
IMAGEDEF_REACTOR
  2
AcDbRasterImageDefReactor
  3
ISM
 90
        1
280
     0
281
     0
  0
CLASS
  1
IDBUFFER
  2
AcDbIdBuffer
  3
"Acad"
 90
        0
280
     0
281
     0
  0
CLASS
  1
SPATIAL_FILTER
  2
AcDbSpatialFilter
  3
"Acad"
 90
        0
280
     0
281
     0
  0
CLASS
  1
XRECORD
  2
AcDbXrecord
  3
"<Built In>"
 90
        0
280
     0
281
     0
  0
CLASS
  1
SORTENTSTABLE
  2
AcDbSortentsTable
  3
"AutoCAD"
 90
        0
280
     0
281
     0
  0
CLASS
  1
LAYER_INDEX
  2
AcDbLayerIndex
  3
"Acad"
 90
        0
280
     0
281
     0
  0
CLASS
  1
SPATIAL_INDEX
  2
AcDbSpatialIndex
  3
"Acad"
 90
        0
280
     0
281
     0
  0
CLASS
  1
OBJECT_PTR
  2
CAseDLPNTableRecord
  3
"ASE-LPNTableRecord"
 90
        1
280
     0
281
     0
  0
CLASS
  1
LAYOUT
  2
AcDbLayout
  3
"AutoCAD 2000"
 90
        1
280
     0
281
     0
  0
CLASS
  1
PLOTSETTINGS
  2
AcDbPlotSettings
  3
"AutoCAD 2000"
 90
        1
280
     0
281
     0
  0
CLASS
  1
ACDBDICTIONARYWDFLT
  2
AcDbDictionaryWithDefault
  3
"AutoCAD 2000"
 90
        1
280
     0
281
     0
  0
CLASS
  1
ACDBPLACEHOLDER
  2
AcDbPlaceHolder
  3
"AutoCAD 2000"
 90
        1
280
     0
281
     0
  0
CLASS
  1
VBA_PROJECT
  2
AcDbVbaProject
  3
"acadvba"
 90
        1
280
     0
281
     0
  0
CLASS
  1
WIPEOUT
  2
AcDbWipeout
  3
WipeOut|AutoCAD Express Tool|expresstools@autodesk.com
 90
      127
280
     0
281
     1
  0
CLASS
  1
WIPEOUTVARIABLES
  2
AcDbWipeoutVariables
  3
WipeOut|AutoCAD Express Tool|expresstools@autodesk.com
 90
        0
280
     0
281
     0
  0
CLASS
  1
RTEXT
  2
RText
  3
RText|AutoCAD Express Tool|expresstools@autodesk.com
 90
        0
280
     0
281
     1
  0
CLASS
  1
ARCALIGNEDTEXT
  2
AcDbArcAlignedText
  3
ATEXT|AutoCAD Express Tool|expresstools@autodesk.com
 90
        0
280
     0
281
     1
  0
ENDSEC
  0
SECTION
  2
TABLES
  0
TABLE
  2
VPORT
  5
7
100
AcDbSymbolTable
 70
     1
  0
VPORT
  5
15
100
AcDbSymbolTableRecord
100
AcDbViewportTableRecord
  2
*ACTIVE
 70
     0
 10
0.0
 20
0.0
 11
1.0
 21
1.0
 12
6.591288
 22
4.579184
 13
0.0
 23
0.0
 14
1.0
 24
1.0
 15
0.0
 25
0.0
 16
0.0
 26
0.0
 36
1.0
 17
0.0
 27
0.0
 37
0.0
 40
9.158369
 41
0.688564
 42
50.0
 43
0.0
 44
0.0
 50
0.0
 51
0.0
 71
     0
 72
   100
 73
     1
 74
     1
 75
     0
 76
     0
 77
     0
 78
     0
  0
ENDTAB
  0
TABLE
  2
LTYPE
  5
4
100
AcDbSymbolTable
 70
     5
  0
LTYPE
  5
11
100
AcDbSymbolTableRecord
100
AcDbLinetypeTableRecord
  2
BYBLOCK
 70
    64
  3

 72
    65
 73
     0
 40
0.0
  0
LTYPE
  5
12
100
AcDbSymbolTableRecord
100
AcDbLinetypeTableRecord
  2
BYLAYER
 70
    64
  3

 72
    65
 73
     0
 40
0.0
  0
LTYPE
  5
13
100
AcDbSymbolTableRecord
100
AcDbLinetypeTableRecord
  2
CONTINUOUS
 70
    64
  3
Solid line
 72
    65
 73
     0
 40
0.0
  0
LTYPE
  5
24
100
AcDbSymbolTableRecord
100
AcDbLinetypeTableRecord
  2
____1
 70
    64
  3

 72
    65
 73
     0
 40
0.0
  0
LTYPE
  5
25
100
AcDbSymbolTableRecord
100
AcDbLinetypeTableRecord
  2
_À_
 70
    64
  3

 72
    65
 73
     0
 40
0.0
  0
ENDTAB
  0
TABLE
  2
LAYER
  5
2
100
AcDbSymbolTable
 70
     3
  0
LAYER
  5
14
100
AcDbSymbolTableRecord
100
AcDbLayerTableRecord
  2
0
 70
     0
 62
     7
  6
CONTINUOUS
  0
LAYER
  5
26
100
AcDbSymbolTableRecord
100
AcDbLayerTableRecord
  2
___C__1
 70
    64
 62
     1
  6
CONTINUOUS
  0
LAYER
  5
27
100
AcDbSymbolTableRecord
100
AcDbLayerTableRecord
  2
___C____1
 70
    64
 62
     1
  6
CONTINUOUS
  0
ENDTAB
  0
TABLE
  2
STYLE
  5
3
100
AcDbSymbolTable
 70
     1
  0
STYLE
  5
17
100
AcDbSymbolTableRecord
100
AcDbTextStyleTableRecord
  2
STANDARD
 70
     0
 40
0.0
 41
1.0
 50
0.0
 71
     0
 42
0.0
  3
txt
  4

  0
ENDTAB
  0
TABLE
  2
VIEW
  5
5
100
AcDbSymbolTable
 70
     0
  0
ENDTAB
  0
TABLE
  2
UCS
  5
6
100
AcDbSymbolTable
 70
     0
  0
ENDTAB
  0
TABLE
  2
APPID
  5
8
100
AcDbSymbolTable
 70
     1
  0
APPID
  5
16
100
AcDbSymbolTableRecord
100
AcDbRegAppTableRecord
  2
ACAD
 70
     0
  0
ENDTAB
  0
TABLE
  2
DIMSTYLE
  5
9
100
AcDbSymbolTable
 70
     1
  0
DIMSTYLE
105
18
100
AcDbSymbolTableRecord
100
AcDbDimStyleTableRecord
  2
STANDARD
 70
     0
  3

  4

  5

  6

  7

 40
1.0
 41
0.18
 42
0.0625
 43
0.38
 44
0.18
 45
0.0
 46
0.0
 47
0.0
 48
0.0
 71
     0
 72
     0
 73
     1
 74
     1
 75
     0
 76
     0
 77
     0
 78
     0
140
0.18
141
0.09
142
0.0
143
25.4
144
1.0
145
0.0
146
1.0
147
0.09
170
     0
171
     2
172
     0
173
     0
174
     0
175
     0
176
     0
177
     0
178
     0
270
     2
271
     4
272
     4
273
     2
274
     2
275
     0
280
     0
281
     0
282
     0
283
     1
284
     0
285
     0
286
     0
287
     0
288
     0
340
17
  0
ENDTAB
  0
TABLE
  2
BLOCK_RECORD
  5
1
100
AcDbSymbolTable
 70
     0
  0
BLOCK_RECORD
  5
A
100
AcDbSymbolTableRecord
100
AcDbBlockTableRecord
  2
*MODEL_SPACE
  0
BLOCK_RECORD
  5
B
100
AcDbSymbolTableRecord
100
AcDbBlockTableRecord
  2
*PAPER_SPACE
  0
ENDTAB
  0
ENDSEC
  0
SECTION
  2
BLOCKS
  0
BLOCK
  5
D
100
AcDbEntity
  8
0
100
AcDbBlockBegin
  2
*MODEL_SPACE
 70
     0
 10
0.0
 20
0.0
 30
0.0
  3
*MODEL_SPACE
  1

  0
ENDBLK
  5
E
100
AcDbEntity
  8
0
100
AcDbBlockEnd
  0
BLOCK
  5
F
100
AcDbEntity
 67
     1
  8
0
100
AcDbBlockBegin
  2
*PAPER_SPACE
 70
     0
 10
0.0
 20
0.0
 30
0.0
  3
*PAPER_SPACE
  1

  0
ENDBLK
  5
10
100
AcDbEntity
 67
     1
  8
0
100
AcDbBlockEnd
  0
ENDSEC
  0
SECTION
  2
ENTITIES
  0
MTEXT
  5
28
100
AcDbEntity
  8
___C____1
  6
____1
 62
    18
100
AcDbMText
 10
11.015162
 20
13.389975
 30
0.0
 40
0.423334
 41
0.0
 71
     7
 72
     1
  1
{YZ1404}
  0
POLYLINE
  5
29
100
AcDbEntity
  8
___C____1
  6
____1
 62
    18
100
AcDb2dPolyline
 66
     1
 10
0.0
 20
0.0
 30
0.0
  0
VERTEX
  5
2A
100
AcDbEntity
  8
___C____1
  6
____1
 62
    18
100
AcDbVertex
100
AcDb2dVertex
 10
11.598249
 20
15.210281
 30
0.0
  0
VERTEX
  5
2B
100
AcDbEntity
  8
___C____1
  6
____1
 62
    18
100
AcDbVertex
100
AcDb2dVertex
 10
11.558296
 20
15.095843
 30
0.0
  0
VERTEX
  5
2C
100
AcDbEntity
  8
___C____1
  6
____1
 62
    18
100
AcDbVertex
100
AcDb2dVertex
 10
11.444493
 20
14.99079
 30
0.0
  0
VERTEX
  5
2D
100
AcDbEntity
  8
___C____1
  6
____1
 62
    18
100
AcDbVertex
100
AcDb2dVertex
 10
11.26592
 20
14.898118
 30
0.0
  0
VERTEX
  5
2E
100
AcDbEntity
  8
___C____1
  6
____1
 62
    18
100
AcDbVertex
100
AcDb2dVertex
 10
11.031657
 20
14.820824
 30
0.0
  0
VERTEX
  5
2F
100
AcDbEntity
  8
___C____1
  6
____1
 62
    18
100
AcDbVertex
100
AcDb2dVertex
 10
10.750785
 20
14.761905
 30
0.0
  0
VERTEX
  5
30
100
AcDbEntity
  8
___C____1
  6
____1
 62
    18
100
AcDbVertex
100
AcDb2dVertex
 10
10.432385
 20
14.724355
 30
0.0
  0
VERTEX
  5
31
100
AcDbEntity
  8
___C____1
  6
____1
 62
    18
100
AcDbVertex
100
AcDb2dVertex
 10
10.085538
 20
14.711173
 30
0.0
  0
VERTEX
  5
32
100
AcDbEntity
  8
___C____1
  6
____1
 62
    18
100
AcDbVertex
100
AcDb2dVertex
 10
9.73871
 20
14.724355
 30
0.0
  0
VERTEX
  5
33
100
AcDbEntity
  8
___C____1
  6
____1
 62
    18
100
AcDbVertex
100
AcDb2dVertex
 10
9.420323
 20
14.761905
 30
0.0
  0
VERTEX
  5
34
100
AcDbEntity
  8
___C____1
  6
____1
 62
    18
100
AcDbVertex
100
AcDb2dVertex
 10
9.139461
 20
14.820824
 30
0.0
  0
VERTEX
  5
35
100
AcDbEntity
  8
___C____1
  6
____1
 62
    18
100
AcDbVertex
100
AcDb2dVertex
 10
8.905204
 20
14.898118
 30
0.0
  0
VERTEX
  5
36
100
AcDbEntity
  8
___C____1
  6
____1
 62
    18
100
AcDbVertex
100
AcDb2dVertex
 10
8.726634
 20
14.99079
 30
0.0
  0
VERTEX
  5
37
100
AcDbEntity
  8
___C____1
  6
____1
 62
    18
100
AcDbVertex
100
AcDb2dVertex
 10
8.612833
 20
15.095843
 30
0.0
  0
VERTEX
  5
38
100
AcDbEntity
  8
___C____1
  6
____1
 62
    18
100
AcDbVertex
100
AcDb2dVertex
 10
8.572881
 20
15.210281
 30
0.0
  0
SEQEND
  5
39
100
AcDbEntity
  8
___C____1
  6
____1
 62
    18
  0
POLYLINE
  5
3A
100
AcDbEntity
  8
___C____1
  6
____1
 62
    18
100
AcDb2dPolyline
 66
     1
 10
0.0
 20
0.0
 30
0.0
 70
     1
  0
VERTEX
  5
3B
100
AcDbEntity
  8
___C____1
  6
____1
 62
    18
100
AcDbVertex
100
AcDb2dVertex
 10
11.598249
 20
15.42531
 30
0.0
  0
VERTEX
  5
3C
100
AcDbEntity
  8
___C____1
  6
____1
 62
    18
100
AcDbVertex
100
AcDb2dVertex
 10
11.558296
 20
15.310863
 30
0.0
  0
VERTEX
  5
3D
100
AcDbEntity
  8
___C____1
  6
____1
 62
    18
100
AcDbVertex
100
AcDb2dVertex
 10
11.444493
 20
15.205802
 30
0.0
  0
VERTEX
  5
3E
100
AcDbEntity
  8
___C____1
  6
____1
 62
    18
100
AcDbVertex
100
AcDb2dVertex
 10
11.26592
 20
15.113123
 30
0.0
  0
VERTEX
  5
3F
100
AcDbEntity
  8
___C____1
  6
____1
 62
    18
100
AcDbVertex
100
AcDb2dVertex
 10
11.031657
 20
15.035823
 30
0.0
  0
VERTEX
  5
40
100
AcDbEntity
  8
___C____1
  6
____1
 62
    18
100
AcDbVertex
100
AcDb2dVertex
 10
10.750785
 20
14.976899
 30
0.0
  0
VERTEX
  5
41
100
AcDbEntity
  8
___C____1
  6
____1
 62
    18
100
AcDbVertex
100
AcDb2dVertex
 10
10.432385
 20
14.939347
 30
0.0
  0
VERTEX
  5
42
100
AcDbEntity
  8
___C____1
  6
____1
 62
    18
100
AcDbVertex
100
AcDb2dVertex
 10
10.085538
 20
14.926163
 30
0.0
  0
VERTEX
  5
43
100
AcDbEntity
  8
___C____1
  6
____1
 62
    18
100
AcDbVertex
100
AcDb2dVertex
 10
9.73871
 20
14.939347
 30
0.0
  0
VERTEX
  5
44
100
AcDbEntity
  8
___C____1
  6
____1
 62
    18
100
AcDbVertex
100
AcDb2dVertex
 10
9.420323
 20
14.976899
 30
0.0
  0
VERTEX
  5
45
100
AcDbEntity
  8
___C____1
  6
____1
 62
    18
100
AcDbVertex
100
AcDb2dVertex
 10
9.139461
 20
15.035823
 30
0.0
  0
VERTEX
  5
46
100
AcDbEntity
  8
___C____1
  6
____1
 62
    18
100
AcDbVertex
100
AcDb2dVertex
 10
8.905204
 20
15.113123
 30
0.0
  0
VERTEX
  5
47
100
AcDbEntity
  8
___C____1
  6
____1
 62
    18
100
AcDbVertex
100
AcDb2dVertex
 10
8.726634
 20
15.205802
 30
0.0
  0
VERTEX
  5
48
100
AcDbEntity
  8
___C____1
  6
____1
 62
    18
100
AcDbVertex
100
AcDb2dVertex
 10
8.612833
 20
15.310863
 30
0.0
  0
VERTEX
  5
49
100
AcDbEntity
  8
___C____1
  6
____1
 62
    18
100
AcDbVertex
100
AcDb2dVertex
 10
8.572881
 20
15.42531
 30
0.0
  0
VERTEX
  5
4A
100
AcDbEntity
  8
___C____1
  6
____1
 62
    18
100
AcDbVertex
100
AcDb2dVertex
 10
8.612833
 20
15.539753
 30
0.0
  0
VERTEX
  5
4B
100
AcDbEntity
  8
___C____1
  6
____1
 62
    18
100
AcDbVertex
100
AcDb2dVertex
 10
8.726634
 20
15.644808
 30
0.0
  0
VERTEX
  5
4C
100
AcDbEntity
  8
___C____1
  6
____1
 62
    18
100
AcDbVertex
100
AcDb2dVertex
 10
8.905204
 20
15.737479
 30
0.0
  0
VERTEX
  5
4D
100
AcDbEntity
  8
___C____1
  6
____1
 62
    18
100
AcDbVertex
100
AcDb2dVertex
 10
9.139461
 20
15.814771
 30
0.0
  0
VERTEX
  5
4E
100
AcDbEntity
  8
___C____1
  6
____1
 62
    18
100
AcDbVertex
100
AcDb2dVertex
 10
9.420323
 20
15.873689
 30
0.0
  0
VERTEX
  5
4F
100
AcDbEntity
  8
___C____1
  6
____1
 62
    18
100
AcDbVertex
100
AcDb2dVertex
 10
9.73871
 20
15.911236
 30
0.0
  0
VERTEX
  5
50
100
AcDbEntity
  8
___C____1
  6
____1
 62
    18
100
AcDbVertex
100
AcDb2dVertex
 10
10.085538
 20
15.924417
 30
0.0
  0
VERTEX
  5
51
100
AcDbEntity
  8
___C____1
  6
____1
 62
    18
100
AcDbVertex
100
AcDb2dVertex
 10
10.432385
 20
15.911236
 30
0.0
  0
VERTEX
  5
52
100
AcDbEntity
  8
___C____1
  6
____1
 62
    18
100
AcDbVertex
100
AcDb2dVertex
 10
10.750785
 20
15.873689
 30
0.0
  0
VERTEX
  5
53
100
AcDbEntity
  8
___C____1
  6
____1
 62
    18
100
AcDbVertex
100
AcDb2dVertex
 10
11.031657
 20
15.814771
 30
0.0
  0
VERTEX
  5
54
100
AcDbEntity
  8
___C____1
  6
____1
 62
    18
100
AcDbVertex
100
AcDb2dVertex
 10
11.26592
 20
15.737479
 30
0.0
  0
VERTEX
  5
55
100
AcDbEntity
  8
___C____1
  6
____1
 62
    18
100
AcDbVertex
100
AcDb2dVertex
 10
11.444493
 20
15.644808
 30
0.0
  0
VERTEX
  5
56
100
AcDbEntity
  8
___C____1
  6
____1
 62
    18
100
AcDbVertex
100
AcDb2dVertex
 10
11.558296
 20
15.539753
 30
0.0
  0
SEQEND
  5
57
100
AcDbEntity
  8
___C____1
  6
____1
 62
    18
  0
POLYLINE
  5
58
100
AcDbEntity
  8
___C____1
  6
____1
 62
    18
100
AcDb2dPolyline
 66
     1
 10
0.0
 20
0.0
 30
0.0
  0
VERTEX
  5
59
100
AcDbEntity
  8
___C____1
  6
____1
 62
    18
100
AcDbVertex
100
AcDb2dVertex
 10
8.580285
 20
15.403861
 30
0.0
  0
VERTEX
  5
5A
100
AcDbEntity
  8
___C____1
  6
____1
 62
    18
100
AcDbVertex
100
AcDb2dVertex
 10
8.580285
 20
15.159847
 30
0.0
  0
SEQEND
  5
5B
100
AcDbEntity
  8
___C____1
  6
____1
 62
    18
  0
POLYLINE
  5
5C
100
AcDbEntity
  8
___C____1
  6
____1
 62
    18
100
AcDb2dPolyline
 66
     1
 10
0.0
 20
0.0
 30
0.0
  0
VERTEX
  5
5D
100
AcDbEntity
  8
___C____1
  6
____1
 62
    18
100
AcDbVertex
100
AcDb2dVertex
 10
11.590255
 20
15.403861
 30
0.0
  0
VERTEX
  5
5E
100
AcDbEntity
  8
___C____1
  6
____1
 62
    18
100
AcDbVertex
100
AcDb2dVertex
 10
11.590255
 20
15.159847
 30
0.0
  0
SEQEND
  5
5F
100
AcDbEntity
  8
___C____1
  6
____1
 62
    18
  0
POLYLINE
  5
60
100
AcDbEntity
  8
___C____1
  6
____1
 62
    18
100
AcDb2dPolyline
 66
     1
 10
0.0
 20
0.0
 30
0.0
  0
VERTEX
  5
61
100
AcDbEntity
  8
___C____1
  6
____1
 62
    18
100
AcDbVertex
100
AcDb2dVertex
 10
9.99922
 20
19.82057
 30
0.0
  0
VERTEX
  5
62
100
AcDbEntity
  8
___C____1
  6
____1
 62
    18
100
AcDbVertex
100
AcDb2dVertex
 10
9.99922
 20
15.434076
 30
0.0
  0
VERTEX
  5
63
100
AcDbEntity
  8
___C____1
  6
____1
 62
    18
100
AcDbVertex
100
AcDb2dVertex
 10
10.015987
 20
15.422807
 30
0.0
  0
VERTEX
  5
64
100
AcDbEntity
  8
___C____1
  6
____1
 62
    18
100
AcDbVertex
100
AcDb2dVertex
 10
10.056781
 20
15.411538
 30
0.0
  0
VERTEX
  5
65
100
AcDbEntity
  8
___C____1
  6
____1
 62
    18
100
AcDbVertex
100
AcDb2dVertex
 10
10.107343
 20
15.434076
 30
0.0
  0
VERTEX
  5
66
100
AcDbEntity
  8
___C____1
  6
____1
 62
    18
100
AcDbVertex
100
AcDb2dVertex
 10
10.107343
 20
19.82057
 30
0.0
  0
SEQEND
  5
67
100
AcDbEntity
  8
___C____1
  6
____1
 62
    18
  0
POLYLINE
  5
68
100
AcDbEntity
  8
___C____1
  6
____1
 62
    18
100
AcDb2dPolyline
 66
     1
 10
0.0
 20
0.0
 30
0.0
 70
     1
  0
VERTEX
  5
69
100
AcDbEntity
  8
___C____1
  6
____1
 62
    18
100
AcDbVertex
100
AcDb2dVertex
 10
10.132892
 20
19.819434
 30
0.0
  0
VERTEX
  5
6A
100
AcDbEntity
  8
___C____1
  6
____1
 62
    18
100
AcDbVertex
100
AcDb2dVertex
 10
10.125245
 20
19.807651
 30
0.0
  0
VERTEX
  5
6B
100
AcDbEntity
  8
___C____1
  6
____1
 62
    18
100
AcDbVertex
100
AcDb2dVertex
 10
10.105161
 20
19.799268
 30
0.0
  0
VERTEX
  5
6C
100
AcDbEntity
  8
___C____1
  6
____1
 62
    18
100
AcDbVertex
100
AcDb2dVertex
 10
10.076923
 20
19.796076
 30
0.0
  0
VERTEX
  5
6D
100
AcDbEntity
  8
___C____1
  6
____1
 62
    18
100
AcDbVertex
100
AcDb2dVertex
 10
10.048664
 20
19.799268
 30
0.0
  0
VERTEX
  5
6E
100
AcDbEntity
  8
___C____1
  6
____1
 62
    18
100
AcDbVertex
100
AcDb2dVertex
 10
10.028571
 20
19.807651
 30
0.0
  0
VERTEX
  5
6F
100
AcDbEntity
  8
___C____1
  6
____1
 62
    18
100
AcDbVertex
100
AcDb2dVertex
 10
10.020923
 20
19.819434
 30
0.0
  0
VERTEX
  5
70
100
AcDbEntity
  8
___C____1
  6
____1
 62
    18
100
AcDbVertex
100
AcDb2dVertex
 10
10.028571
 20
19.831215
 30
0.0
  0
VERTEX
  5
71
100
AcDbEntity
  8
___C____1
  6
____1
 62
    18
100
AcDbVertex
100
AcDb2dVertex
 10
10.048664
 20
19.839599
 30
0.0
  0
VERTEX
  5
72
100
AcDbEntity
  8
___C____1
  6
____1
 62
    18
100
AcDbVertex
100
AcDb2dVertex
 10
10.076923
 20
19.842791
 30
0.0
  0
VERTEX
  5
73
100
AcDbEntity
  8
___C____1
  6
____1
 62
    18
100
AcDbVertex
100
AcDb2dVertex
 10
10.105161
 20
19.839599
 30
0.0
  0
VERTEX
  5
74
100
AcDbEntity
  8
___C____1
  6
____1
 62
    18
100
AcDbVertex
100
AcDb2dVertex
 10
10.125245
 20
19.831215
 30
0.0
  0
SEQEND
  5
75
100
AcDbEntity
  8
___C____1
  6
____1
 62
    18
  0
POLYLINE
  5
76
100
AcDbEntity
  8
___C____1
  6
____1
 62
    18
100
AcDb2dPolyline
 66
     1
 10
0.0
 20
0.0
 30
0.0
  0
VERTEX
  5
77
100
AcDbEntity
  8
___C____1
  6
____1
 62
    18
100
AcDbVertex
100
AcDb2dVertex
 10
10.106278
 20
19.789977
 30
0.0
  0
VERTEX
  5
78
100
AcDbEntity
  8
___C____1
  6
____1
 62
    18
100
AcDbVertex
100
AcDb2dVertex
 10
10.106278
 20
15.403483
 30
0.0
  0
VERTEX
  5
79
100
AcDbEntity
  8
___C____1
  6
____1
 62
    18
100
AcDbVertex
100
AcDb2dVertex
 10
10.123037
 20
15.392218
 30
0.0
  0
VERTEX
  5
7A
100
AcDbEntity
  8
___C____1
  6
____1
 62
    18
100
AcDbVertex
100
AcDb2dVertex
 10
10.163823
 20
15.380953
 30
0.0
  0
VERTEX
  5
7B
100
AcDbEntity
  8
___C____1
  6
____1
 62
    18
100
AcDbVertex
100
AcDb2dVertex
 10
10.214401
 20
15.403483
 30
0.0
  0
VERTEX
  5
7C
100
AcDbEntity
  8
___C____1
  6
____1
 62
    18
100
AcDbVertex
100
AcDb2dVertex
 10
10.214401
 20
19.789977
 30
0.0
  0
SEQEND
  5
7D
100
AcDbEntity
  8
___C____1
  6
____1
 62
    18
  0
POLYLINE
  5
7E
100
AcDbEntity
  8
___C____1
  6
____1
 62
    18
100
AcDb2dPolyline
 66
     1
 10
0.0
 20
0.0
 30
0.0
 70
     1
  0
VERTEX
  5
7F
100
AcDbEntity
  8
___C____1
  6
____1
 62
    18
100
AcDbVertex
100
AcDb2dVertex
 10
10.215519
 20
19.788841
 30
0.0
  0
VERTEX
  5
80
100
AcDbEntity
  8
___C____1
  6
____1
 62
    18
100
AcDbVertex
100
AcDb2dVertex
 10
10.207881
 20
19.777062
 30
0.0
  0
VERTEX
  5
81
100
AcDbEntity
  8
___C____1
  6
____1
 62
    18
100
AcDbVertex
100
AcDb2dVertex
 10
10.187807
 20
19.768688
 30
0.0
  0
VERTEX
  5
82
100
AcDbEntity
  8
___C____1
  6
____1
 62
    18
100
AcDbVertex
100
AcDb2dVertex
 10
10.159555
 20
19.765501
 30
0.0
  0
VERTEX
  5
83
100
AcDbEntity
  8
___C____1
  6
____1
 62
    18
100
AcDbVertex
100
AcDb2dVertex
 10
10.131304
 20
19.768688
 30
0.0
  0
VERTEX
  5
84
100
AcDbEntity
  8
___C____1
  6
____1
 62
    18
100
AcDbVertex
100
AcDb2dVertex
 10
10.111229
 20
19.777062
 30
0.0
  0
VERTEX
  5
85
100
AcDbEntity
  8
___C____1
  6
____1
 62
    18
100
AcDbVertex
100
AcDb2dVertex
 10
10.10359
 20
19.788841
 30
0.0
  0
VERTEX
  5
86
100
AcDbEntity
  8
___C____1
  6
____1
 62
    18
100
AcDbVertex
100
AcDb2dVertex
 10
10.111229
 20
19.80063
 30
0.0
  0
VERTEX
  5
87
100
AcDbEntity
  8
___C____1
  6
____1
 62
    18
100
AcDbVertex
100
AcDb2dVertex
 10
10.131304
 20
19.80901
 30
0.0
  0
VERTEX
  5
88
100
AcDbEntity
  8
___C____1
  6
____1
 62
    18
100
AcDbVertex
100
AcDb2dVertex
 10
10.159555
 20
19.812198
 30
0.0
  0
VERTEX
  5
89
100
AcDbEntity
  8
___C____1
  6
____1
 62
    18
100
AcDbVertex
100
AcDb2dVertex
 10
10.187807
 20
19.80901
 30
0.0
  0
VERTEX
  5
8A
100
AcDbEntity
  8
___C____1
  6
____1
 62
    18
100
AcDbVertex
100
AcDb2dVertex
 10
10.207881
 20
19.80063
 30
0.0
  0
SEQEND
  5
8B
100
AcDbEntity
  8
___C____1
  6
____1
 62
    18
  0
POLYLINE
  5
8C
100
AcDbEntity
  8
___C____1
  6
____1
 62
    18
100
AcDb2dPolyline
 66
     1
 10
0.0
 20
0.0
 30
0.0
  0
VERTEX
  5
8D
100
AcDbEntity
  8
___C____1
  6
____1
 62
    18
100
AcDbVertex
100
AcDb2dVertex
 10
9.930421
 20
19.789977
 30
0.0
  0
VERTEX
  5
8E
100
AcDbEntity
  8
___C____1
  6
____1
 62
    18
100
AcDbVertex
100
AcDb2dVertex
 10
9.930421
 20
15.403483
 30
0.0
  0
VERTEX
  5
8F
100
AcDbEntity
  8
___C____1
  6
____1
 62
    18
100
AcDbVertex
100
AcDb2dVertex
 10
9.94718
 20
15.392218
 30
0.0
  0
VERTEX
  5
90
100
AcDbEntity
  8
___C____1
  6
____1
 62
    18
100
AcDbVertex
100
AcDb2dVertex
 10
9.987958
 20
15.380953
 30
0.0
  0
VERTEX
  5
91
100
AcDbEntity
  8
___C____1
  6
____1
 62
    18
100
AcDbVertex
100
AcDb2dVertex
 10
10.038513
 20
15.403483
 30
0.0
  0
VERTEX
  5
92
100
AcDbEntity
  8
___C____1
  6
____1
 62
    18
100
AcDbVertex
100
AcDb2dVertex
 10
10.038513
 20
19.789977
 30
0.0
  0
SEQEND
  5
93
100
AcDbEntity
  8
___C____1
  6
____1
 62
    18
  0
POLYLINE
  5
94
100
AcDbEntity
  8
___C____1
  6
____1
 62
    18
100
AcDb2dPolyline
 66
     1
 10
0.0
 20
0.0
 30
0.0
 70
     1
  0
VERTEX
  5
95
100
AcDbEntity
  8
___C____1
  6
____1
 62
    18
100
AcDbVertex
100
AcDb2dVertex
 10
10.039666
 20
19.788841
 30
0.0
  0
VERTEX
  5
96
100
AcDbEntity
  8
___C____1
  6
____1
 62
    18
100
AcDbVertex
100
AcDb2dVertex
 10
10.032028
 20
19.777062
 30
0.0
  0
VERTEX
  5
97
100
AcDbEntity
  8
___C____1
  6
____1
 62
    18
100
AcDbVertex
100
AcDb2dVertex
 10
10.011952
 20
19.768688
 30
0.0
  0
VERTEX
  5
98
100
AcDbEntity
  8
___C____1
  6
____1
 62
    18
100
AcDbVertex
100
AcDb2dVertex
 10
9.983702
 20
19.765501
 30
0.0
  0
VERTEX
  5
99
100
AcDbEntity
  8
___C____1
  6
____1
 62
    18
100
AcDbVertex
100
AcDb2dVertex
 10
9.955449
 20
19.768688
 30
0.0
  0
VERTEX
  5
9A
100
AcDbEntity
  8
___C____1
  6
____1
 62
    18
100
AcDbVertex
100
AcDb2dVertex
 10
9.935372
 20
19.777062
 30
0.0
  0
VERTEX
  5
9B
100
AcDbEntity
  8
___C____1
  6
____1
 62
    18
100
AcDbVertex
100
AcDb2dVertex
 10
9.927733
 20
19.788841
 30
0.0
  0
VERTEX
  5
9C
100
AcDbEntity
  8
___C____1
  6
____1
 62
    18
100
AcDbVertex
100
AcDb2dVertex
 10
9.935372
 20
19.80063
 30
0.0
  0
VERTEX
  5
9D
100
AcDbEntity
  8
___C____1
  6
____1
 62
    18
100
AcDbVertex
100
AcDb2dVertex
 10
9.955449
 20
19.80901
 30
0.0
  0
VERTEX
  5
9E
100
AcDbEntity
  8
___C____1
  6
____1
 62
    18
100
AcDbVertex
100
AcDb2dVertex
 10
9.983702
 20
19.812198
 30
0.0
  0
VERTEX
  5
9F
100
AcDbEntity
  8
___C____1
  6
____1
 62
    18
100
AcDbVertex
100
AcDb2dVertex
 10
10.011952
 20
19.80901
 30
0.0
  0
VERTEX
  5
A0
100
AcDbEntity
  8
___C____1
  6
____1
 62
    18
100
AcDbVertex
100
AcDb2dVertex
 10
10.032028
 20
19.80063
 30
0.0
  0
SEQEND
  5
A1
100
AcDbEntity
  8
___C____1
  6
____1
 62
    18
  0
POLYLINE
  5
A2
100
AcDbEntity
  8
___C____1
  6
____1
 62
    18
100
AcDb2dPolyline
 66
     1
 10
0.0
 20
0.0
 30
0.0
  0
VERTEX
  5
A3
100
AcDbEntity
  8
___C____1
  6
____1
 62
    18
100
AcDbVertex
100
AcDb2dVertex
 10
10.022147
 20
19.744087
 30
0.0
  0
VERTEX
  5
A4
100
AcDbEntity
  8
___C____1
  6
____1
 62
    18
100
AcDbVertex
100
AcDb2dVertex
 10
10.022147
 20
15.357629
 30
0.0
  0
VERTEX
  5
A5
100
AcDbEntity
  8
___C____1
  6
____1
 62
    18
100
AcDbVertex
100
AcDb2dVertex
 10
10.038915
 20
15.34636
 30
0.0
  0
VERTEX
  5
A6
100
AcDbEntity
  8
___C____1
  6
____1
 62
    18
100
AcDbVertex
100
AcDb2dVertex
 10
10.079713
 20
15.335091
 30
0.0
  0
VERTEX
  5
A7
100
AcDbEntity
  8
___C____1
  6
____1
 62
    18
100
AcDbVertex
100
AcDb2dVertex
 10
10.130288
 20
15.357629
 30
0.0
  0
VERTEX
  5
A8
100
AcDbEntity
  8
___C____1
  6
____1
 62
    18
100
AcDbVertex
100
AcDb2dVertex
 10
10.130288
 20
19.744087
 30
0.0
  0
SEQEND
  5
A9
100
AcDbEntity
  8
___C____1
  6
____1
 62
    18
  0
POLYLINE
  5
AA
100
AcDbEntity
  8
___C____1
  6
____1
 62
    18
100
AcDb2dPolyline
 66
     1
 10
0.0
 20
0.0
 30
0.0
 70
     1
  0
VERTEX
  5
AB
100
AcDbEntity
  8
___C____1
  6
____1
 62
    18
100
AcDbVertex
100
AcDb2dVertex
 10
10.132892
 20
19.742951
 30
0.0
  0
VERTEX
  5
AC
100
AcDbEntity
  8
___C____1
  6
____1
 62
    18
100
AcDbVertex
100
AcDb2dVertex
 10
10.125245
 20
19.731179
 30
0.0
  0
VERTEX
  5
AD
100
AcDbEntity
  8
___C____1
  6
____1
 62
    18
100
AcDbVertex
100
AcDb2dVertex
 10
10.105161
 20
19.722813
 30
0.0
  0
VERTEX
  5
AE
100
AcDbEntity
  8
___C____1
  6
____1
 62
    18
100
AcDbVertex
100
AcDb2dVertex
 10
10.076923
 20
19.719629
 30
0.0
  0
VERTEX
  5
AF
100
AcDbEntity
  8
___C____1
  6
____1
 62
    18
100
AcDbVertex
100
AcDb2dVertex
 10
10.048664
 20
19.722813
 30
0.0
  0
VERTEX
  5
B0
100
AcDbEntity
  8
___C____1
  6
____1
 62
    18
100
AcDbVertex
100
AcDb2dVertex
 10
10.028571
 20
19.731179
 30
0.0
  0
VERTEX
  5
B1
100
AcDbEntity
  8
___C____1
  6
____1
 62
    18
100
AcDbVertex
100
AcDb2dVertex
 10
10.020923
 20
19.742951
 30
0.0
  0
VERTEX
  5
B2
100
AcDbEntity
  8
___C____1
  6
____1
 62
    18
100
AcDbVertex
100
AcDb2dVertex
 10
10.028571
 20
19.754753
 30
0.0
  0
VERTEX
  5
B3
100
AcDbEntity
  8
___C____1
  6
____1
 62
    18
100
AcDbVertex
100
AcDb2dVertex
 10
10.048664
 20
19.763137
 30
0.0
  0
VERTEX
  5
B4
100
AcDbEntity
  8
___C____1
  6
____1
 62
    18
100
AcDbVertex
100
AcDb2dVertex
 10
10.076923
 20
19.766327
 30
0.0
  0
VERTEX
  5
B5
100
AcDbEntity
  8
___C____1
  6
____1
 62
    18
100
AcDbVertex
100
AcDb2dVertex
 10
10.105161
 20
19.763137
 30
0.0
  0
VERTEX
  5
B6
100
AcDbEntity
  8
___C____1
  6
____1
 62
    18
100
AcDbVertex
100
AcDb2dVertex
 10
10.125245
 20
19.754753
 30
0.0
  0
SEQEND
  5
B7
100
AcDbEntity
  8
___C____1
  6
____1
 62
    18
  0
POLYLINE
  5
B8
100
AcDbEntity
  8
___C____1
  6
____1
 62
    18
100
AcDb2dPolyline
 66
     1
 10
0.0
 20
0.0
 30
0.0
 70
     1
  0
VERTEX
  5
B9
100
AcDbEntity
  8
___C____1
  6
____1
 62
    18
100
AcDbVertex
100
AcDb2dVertex
 10
9.070161
 20
15.469044
 30
0.0
  0
VERTEX
  5
BA
100
AcDbEntity
  8
___C____1
  6
____1
 62
    18
100
AcDbVertex
100
AcDb2dVertex
 10
9.05772
 20
15.446058
 30
0.0
  0
VERTEX
  5
BB
100
AcDbEntity
  8
___C____1
  6
____1
 62
    18
100
AcDbVertex
100
AcDb2dVertex
 10
9.025024
 20
15.429719
 30
0.0
  0
VERTEX
  5
BC
100
AcDbEntity
  8
___C____1
  6
____1
 62
    18
100
AcDbVertex
100
AcDb2dVertex
 10
8.979006
 20
15.4235
 30
0.0
  0
VERTEX
  5
BD
100
AcDbEntity
  8
___C____1
  6
____1
 62
    18
100
AcDbVertex
100
AcDb2dVertex
 10
8.933022
 20
15.429719
 30
0.0
  0
VERTEX
  5
BE
100
AcDbEntity
  8
___C____1
  6
____1
 62
    18
100
AcDbVertex
100
AcDb2dVertex
 10
8.900337
 20
15.446058
 30
0.0
  0
VERTEX
  5
BF
100
AcDbEntity
  8
___C____1
  6
____1
 62
    18
100
AcDbVertex
100
AcDb2dVertex
 10
8.887898
 20
15.469044
 30
0.0
  0
VERTEX
  5
C0
100
AcDbEntity
  8
___C____1
  6
____1
 62
    18
100
AcDbVertex
100
AcDb2dVertex
 10
8.900337
 20
15.492029
 30
0.0
  0
VERTEX
  5
C1
100
AcDbEntity
  8
___C____1
  6
____1
 62
    18
100
AcDbVertex
100
AcDb2dVertex
 10
8.933022
 20
15.508369
 30
0.0
  0
VERTEX
  5
C2
100
AcDbEntity
  8
___C____1
  6
____1
 62
    18
100
AcDbVertex
100
AcDb2dVertex
 10
8.979006
 20
15.514587
 30
0.0
  0
VERTEX
  5
C3
100
AcDbEntity
  8
___C____1
  6
____1
 62
    18
100
AcDbVertex
100
AcDb2dVertex
 10
9.025024
 20
15.508369
 30
0.0
  0
VERTEX
  5
C4
100
AcDbEntity
  8
___C____1
  6
____1
 62
    18
100
AcDbVertex
100
AcDb2dVertex
 10
9.05772
 20
15.492029
 30
0.0
  0
SEQEND
  5
C5
100
AcDbEntity
  8
___C____1
  6
____1
 62
    18
  0
POLYLINE
  5
C6
100
AcDbEntity
  8
___C____1
  6
____1
 62
    18
100
AcDb2dPolyline
 66
     1
 10
0.0
 20
0.0
 30
0.0
 70
     1
  0
VERTEX
  5
C7
100
AcDbEntity
  8
___C____1
  6
____1
 62
    18
100
AcDbVertex
100
AcDb2dVertex
 10
11.288188
 20
15.469044
 30
0.0
  0
VERTEX
  5
C8
100
AcDbEntity
  8
___C____1
  6
____1
 62
    18
100
AcDbVertex
100
AcDb2dVertex
 10
11.275746
 20
15.446058
 30
0.0
  0
VERTEX
  5
C9
100
AcDbEntity
  8
___C____1
  6
____1
 62
    18
100
AcDbVertex
100
AcDb2dVertex
 10
11.243038
 20
15.429719
 30
0.0
  0
VERTEX
  5
CA
100
AcDbEntity
  8
___C____1
  6
____1
 62
    18
100
AcDbVertex
100
AcDb2dVertex
 10
11.196995
 20
15.4235
 30
0.0
  0
VERTEX
  5
CB
100
AcDbEntity
  8
___C____1
  6
____1
 62
    18
100
AcDbVertex
100
AcDb2dVertex
 10
11.151001
 20
15.429719
 30
0.0
  0
VERTEX
  5
CC
100
AcDbEntity
  8
___C____1
  6
____1
 62
    18
100
AcDbVertex
100
AcDb2dVertex
 10
11.118312
 20
15.446058
 30
0.0
  0
VERTEX
  5
CD
100
AcDbEntity
  8
___C____1
  6
____1
 62
    18
100
AcDbVertex
100
AcDb2dVertex
 10
11.105872
 20
15.469044
 30
0.0
  0
VERTEX
  5
CE
100
AcDbEntity
  8
___C____1
  6
____1
 62
    18
100
AcDbVertex
100
AcDb2dVertex
 10
11.118312
 20
15.492029
 30
0.0
  0
VERTEX
  5
CF
100
AcDbEntity
  8
___C____1
  6
____1
 62
    18
100
AcDbVertex
100
AcDb2dVertex
 10
11.151001
 20
15.508369
 30
0.0
  0
VERTEX
  5
D0
100
AcDbEntity
  8
___C____1
  6
____1
 62
    18
100
AcDbVertex
100
AcDb2dVertex
 10
11.196995
 20
15.514587
 30
0.0
  0
VERTEX
  5
D1
100
AcDbEntity
  8
___C____1
  6
____1
 62
    18
100
AcDbVertex
100
AcDb2dVertex
 10
11.243038
 20
15.508369
 30
0.0
  0
VERTEX
  5
D2
100
AcDbEntity
  8
___C____1
  6
____1
 62
    18
100
AcDbVertex
100
AcDb2dVertex
 10
11.275746
 20
15.492029
 30
0.0
  0
SEQEND
  5
D3
100
AcDbEntity
  8
___C____1
  6
____1
 62
    18
  0
ENDSEC
  0
SECTION
  2
OBJECTS
  0
DICTIONARY
  5
19
100
AcDbDictionary
  3
ACAD_GROUP
350
1A
  3
ACAD_MLINESTYLE
350
1B
  0
DICTIONARY
  5
1A
102
{ACAD_REACTORS
330
19
102
}
100
AcDbDictionary
  0
DICTIONARY
  5
1B
102
{ACAD_REACTORS
330
19
102
}
100
AcDbDictionary
  3
STANDARD
350
1C
  0
MLINESTYLE
  5
1C
102
{ACAD_REACTORS
330
1B
102
}
100
AcDbMlineStyle
  2
STANDARD
 70
     0
  3

 62
     0
 51
90.0
 52
90.0
 71
     2
 49
0.5
 62
   256
  6
BYLAYER
 49
-0.5
 62
   256
  6
BYLAYER
  0
DICTIONARY
  5
22
102
{ACAD_REACTORS
330
19
102
}
100
AcDbDictionary
  0
ENDSEC
  0
EOF
