  0
SECTION
  2
HEADER
  9
$ACADVER
  1
AC1012
  9
$DWGCODEPAGE
  3
ansi_1252
  9
$INSBASE
 10
0.0
 20
0.0
 30
0.0
  9
$EXTMIN
 10
8.649257
 20
-2490.442262
 30
0.0
  9
$EXTMAX
 10
13.500712
 20
19.806515
 30
0.0
  9
$LIMMIN
 10
8.649257
 20
-2490.442262
  9
$LIMMAX
 10
13.500712
 20
19.806515
  9
$ORTHOMODE
 70
     0
  9
$REGENMODE
 70
     1
  9
$FILLMODE
 70
     1
  9
$QTEXTMODE
 70
     0
  9
$MIRRTEXT
 70
     1
  9
$DRAGMODE
 70
     2
  9
$LTSCALE
 40
1.0
  9
$OSMODE
 70
     0
  9
$ATTMODE
 70
     1
  9
$TEXTSIZE
 40
0.2
  9
$TRACEWID
 40
0.05
  9
$TEXTSTYLE
  7
STANDARD
  9
$CLAYER
  8
0
  9
$CELTYPE
  6
CONTINUOUS
  9
$CECOLOR
 62
   256
  9
$CELTSCALE
 40
1.0
  9
$DELOBJ
 70
     1
  9
$DISPSILH
 70
     0
  9
$DIMSCALE
 40
1.0
  9
$DIMASZ
 40
0.18
  9
$DIMEXO
 40
0.0625
  9
$DIMDLI
 40
0.38
  9
$DIMRND
 40
0.0
  9
$DIMDLE
 40
0.0
  9
$DIMEXE
 40
0.18
  9
$DIMTP
 40
0.0
  9
$DIMTM
 40
0.0
  9
$DIMTXT
 40
0.18
  9
$DIMCEN
 40
0.09
  9
$DIMTSZ
 40
0.0
  9
$DIMTOL
 70
     0
  9
$DIMLIM
 70
     0
  9
$DIMTIH
 70
     1
  9
$DIMTOH
 70
     1
  9
$DIMSE1
 70
     0
  9
$DIMSE2
 70
     0
  9
$DIMTAD
 70
     0
  9
$DIMZIN
 70
     0
  9
$DIMBLK
  1

  9
$DIMASO
 70
     1
  9
$DIMSHO
 70
     1
  9
$DIMPOST
  1

  9
$DIMAPOST
  1

  9
$DIMALT
 70
     0
  9
$DIMALTD
 70
     2
  9
$DIMALTF
 40
25.4
  9
$DIMLFAC
 40
1.0
  9
$DIMTOFL
 70
     0
  9
$DIMTVP
 40
0.0
  9
$DIMTIX
 70
     0
  9
$DIMSOXD
 70
     0
  9
$DIMSAH
 70
     0
  9
$DIMBLK1
  1

  9
$DIMBLK2
  1

  9
$DIMSTYLE
  2
STANDARD
  9
$DIMCLRD
 70
     0
  9
$DIMCLRE
 70
     0
  9
$DIMCLRT
 70
     0
  9
$DIMTFAC
 40
1.0
  9
$DIMGAP
 40
0.09
  9
$DIMJUST
 70
     0
  9
$DIMSD1
 70
     0
  9
$DIMSD2
 70
     0
  9
$DIMTOLJ
 70
     1
  9
$DIMTZIN
 70
     0
  9
$DIMALTZ
 70
     0
  9
$DIMALTTZ
 70
     0
  9
$DIMFIT
 70
     3
  9
$DIMUPT
 70
     0
  9
$DIMUNIT
 70
     2
  9
$DIMDEC
 70
     4
  9
$DIMTDEC
 70
     4
  9
$DIMALTU
 70
     2
  9
$DIMALTTD
 70
     2
  9
$DIMTXSTY
  7
STANDARD
  9
$DIMAUNIT
 70
     0
  9
$LUNITS
 70
     2
  9
$LUPREC
 70
     0
  9
$SKETCHINC
 40
24.0
  9
$FILLETRAD
 40
50.0
  9
$AUNITS
 70
     2
  9
$AUPREC
 70
     0
  9
$MENU
  1
acad
  9
$ELEVATION
 40
0.0
  9
$PELEVATION
 40
0.0
  9
$THICKNESS
 40
200.0
  9
$LIMCHECK
 70
     0
  9
$BLIPMODE
 70
     1
  9
$CHAMFERA
 40
0.0
  9
$CHAMFERB
 40
0.0
  9
$CHAMFERC
 40
0.0
  9
$CHAMFERD
 40
0.0
  9
$SKPOLY
 70
     0
  9
$TDCREATE
 40
2453286.417604167
  9
$TDUPDATE
 40
2453286.417604167
  9
$TDINDWG
 40
0.0000000000
  9
$TDUSRTIMER
 40
0.0000000000
  9
$USRTIMER
 70
     1
  9
$ANGBASE
 50
0.0
  9
$ANGDIR
 70
     0
  9
$PDMODE
 70
     0
  9
$PDSIZE
 40
0.0
  9
$PLINEWID
 40
0.0
  9
$COORDS
 70
     1
  9
$SPLFRAME
 70
     0
  9
$SPLINETYPE
 70
     6
  9
$SPLINESEGS
 70
     8
  9
$ATTDIA
 70
     0
  9
$ATTREQ
 70
     1
  9
$HANDLING
 70
     1
  9
$HANDSEED
  5
2CF
  9
$SURFTAB1
 70
     6
  9
$SURFTAB2
 70
     6
  9
$SURFTYPE
 70
     6
  9
$SURFU
 70
     6
  9
$SURFV
 70
     6
  9
$UCSNAME
  2

  9
$UCSORG
 10
0.0
 20
0.0
 30
0.0
  9
$UCSXDIR
 10
1.0
 20
0.0
 30
0.0
  9
$UCSYDIR
 10
0.0
 20
1.0
 30
0.0
  9
$PUCSNAME
  2

  9
$PUCSORG
 10
0.0
 20
0.0
 30
0.0
  9
$PUCSXDIR
 10
1.0
 20
0.0
 30
0.0
  9
$PUCSYDIR
 10
0.0
 20
1.0
 30
0.0
  9
$USERI1
 70
     0
  9
$USERI2
 70
     0
  9
$USERI3
 70
     0
  9
$USERI4
 70
     0
  9
$USERI5
 70
     0
  9
$USERR1
 40
0.0
  9
$USERR2
 40
0.0
  9
$USERR3
 40
0.0
  9
$USERR4
 40
0.0
  9
$USERR5
 40
0.0
  9
$WORLDVIEW
 70
     1
  9
$SHADEDGE
 70
     3
  9
$SHADEDIF
 70
    70
  9
$TILEMODE
 70
     1
  9
$MAXACTVP
 70
    16
  9
$PINSBASE
 10
0.0
 20
0.0
 30
0.0
  9
$PLIMCHECK
 70
     0
  9
$PEXTMIN
 10
1.797693E+308
 20
1.797693E+308
 30
1.000000E+20
  9
$PEXTMAX
 10
-1.797693E+308
 20
-1.797693E+308
 30
-1.000000E+20
  9
$PLIMMIN
 10
1.797693E+308
 20
1.797693E+308
  9
$PLIMMAX
 10
-1.797693E+308
 20
-1.797693E+308
  9
$UNITMODE
 70
     0
  9
$VISRETAIN
 70
     0
  9
$PLINEGEN
 70
     1
  9
$PSLTSCALE
 70
     0
  9
$TREEDEPTH
 70
  3020
  9
$PICKSTYLE
 70
     1
  9
$CMLSTYLE
  2
STANDARD
  9
$CMLJUST
 70
     0
  9
$CMLSCALE
 40
1.0
  9
$SAVEIMAGES
 70
     0
  0
ENDSEC
  0
SECTION
  2
CLASSES
  0
CLASS
  1
LWPOLYLINE
  2
AcDbPolyline
  3
"AutoCAD"
 90
        0
280
     0
281
     1
  0
CLASS
  1
IMAGE
  2
AcDbRasterImage
  3
ISM
 90
      127
280
     0
281
     1
  0
CLASS
  1
OLE2FRAME
  2
AcDbOle2Frame
  3
""
 90
        0
280
     0
281
     1
  0
CLASS
  1
HATCH
  2
AcDbHatch
  3
"ACAD_SEDONA"
 90
        0
280
     0
281
     1
  0
CLASS
  1
DICTIONARYVAR
  2
AcDbDictionaryVar
  3
"AutoCAD"
 90
        0
280
     0
281
     0
  0
CLASS
  1
RASTERVARIABLES
  2
AcDbRasterVariables
  3
ISM
 90
        0
280
     0
281
     0
  0
CLASS
  1
IMAGEDEF
  2
AcDbRasterImageDef
  3
ISM
 90
        0
280
     0
281
     0
  0
CLASS
  1
IMAGEDEF_REACTOR
  2
AcDbRasterImageDefReactor
  3
ISM
 90
        1
280
     0
281
     0
  0
CLASS
  1
IDBUFFER
  2
AcDbIdBuffer
  3
"Acad"
 90
        0
280
     0
281
     0
  0
CLASS
  1
SPATIAL_FILTER
  2
AcDbSpatialFilter
  3
"Acad"
 90
        0
280
     0
281
     0
  0
CLASS
  1
XRECORD
  2
AcDbXrecord
  3
"<Built In>"
 90
        0
280
     0
281
     0
  0
CLASS
  1
SORTENTSTABLE
  2
AcDbSortentsTable
  3
"AutoCAD"
 90
        0
280
     0
281
     0
  0
CLASS
  1
LAYER_INDEX
  2
AcDbLayerIndex
  3
"Acad"
 90
        0
280
     0
281
     0
  0
CLASS
  1
SPATIAL_INDEX
  2
AcDbSpatialIndex
  3
"Acad"
 90
        0
280
     0
281
     0
  0
CLASS
  1
OBJECT_PTR
  2
CAseDLPNTableRecord
  3
"ASE-LPNTableRecord"
 90
        1
280
     0
281
     0
  0
CLASS
  1
LAYOUT
  2
AcDbLayout
  3
"AutoCAD 2000"
 90
        1
280
     0
281
     0
  0
CLASS
  1
PLOTSETTINGS
  2
AcDbPlotSettings
  3
"AutoCAD 2000"
 90
        1
280
     0
281
     0
  0
CLASS
  1
ACDBDICTIONARYWDFLT
  2
AcDbDictionaryWithDefault
  3
"AutoCAD 2000"
 90
        1
280
     0
281
     0
  0
CLASS
  1
ACDBPLACEHOLDER
  2
AcDbPlaceHolder
  3
"AutoCAD 2000"
 90
        1
280
     0
281
     0
  0
CLASS
  1
VBA_PROJECT
  2
AcDbVbaProject
  3
"acadvba"
 90
        1
280
     0
281
     0
  0
CLASS
  1
WIPEOUT
  2
AcDbWipeout
  3
WipeOut|AutoCAD Express Tool|expresstools@autodesk.com
 90
      127
280
     0
281
     1
  0
CLASS
  1
WIPEOUTVARIABLES
  2
AcDbWipeoutVariables
  3
WipeOut|AutoCAD Express Tool|expresstools@autodesk.com
 90
        0
280
     0
281
     0
  0
CLASS
  1
RTEXT
  2
RText
  3
RText|AutoCAD Express Tool|expresstools@autodesk.com
 90
        0
280
     0
281
     1
  0
CLASS
  1
ARCALIGNEDTEXT
  2
AcDbArcAlignedText
  3
ATEXT|AutoCAD Express Tool|expresstools@autodesk.com
 90
        0
280
     0
281
     1
  0
ENDSEC
  0
SECTION
  2
TABLES
  0
TABLE
  2
VPORT
  5
7
100
AcDbSymbolTable
 70
     1
  0
VPORT
  5
15
100
AcDbSymbolTableRecord
100
AcDbViewportTableRecord
  2
*ACTIVE
 70
     0
 10
0.0
 20
0.0
 11
1.0
 21
1.0
 12
0.0
 22
0.0
 13
0.0
 23
0.0
 14
50.0
 24
50.0
 15
50.0
 25
50.0
 16
-0.433013
 26
0.75
 36
-0.5
 17
11.211656
 27
15.163686
 37
0.502494
 40
4.302656
 41
1.285714
 42
60.00014
 43
144.0
 44
2000.0
 50
0.0
 51
0.0
 71
     0
 72
   100
 73
     1
 74
     1
 75
     1
 76
     1
 77
     0
 78
     0
  0
ENDTAB
  0
TABLE
  2
LTYPE
  5
4
100
AcDbSymbolTable
 70
     3
  0
LTYPE
  5
11
100
AcDbSymbolTableRecord
100
AcDbLinetypeTableRecord
  2
BYBLOCK
 70
    64
  3

 72
    65
 73
     0
 40
0.0
  0
LTYPE
  5
12
100
AcDbSymbolTableRecord
100
AcDbLinetypeTableRecord
  2
BYLAYER
 70
    64
  3

 72
    65
 73
     0
 40
0.0
  0
LTYPE
  5
13
100
AcDbSymbolTableRecord
100
AcDbLinetypeTableRecord
  2
CONTINUOUS
 70
    64
  3
Solid line
 72
    65
 73
     0
 40
0.0
  0
ENDTAB
  0
TABLE
  2
LAYER
  5
2
100
AcDbSymbolTable
 70
     3
  0
LAYER
  5
14
100
AcDbSymbolTableRecord
100
AcDbLayerTableRecord
  2
0
 70
     0
 62
     7
  6
CONTINUOUS
  0
LAYER
  5
24
100
AcDbSymbolTableRecord
100
AcDbLayerTableRecord
  2
___C___1
 70
    64
 62
     1
  6
CONTINUOUS
  0
LAYER
  5
25
100
AcDbSymbolTableRecord
100
AcDbLayerTableRecord
  2
___C_____1
 70
    64
 62
     1
  6
CONTINUOUS
  0
ENDTAB
  0
TABLE
  2
STYLE
  5
3
100
AcDbSymbolTable
 70
     1
  0
STYLE
  5
17
100
AcDbSymbolTableRecord
100
AcDbTextStyleTableRecord
  2
STANDARD
 70
     0
 40
0.0
 41
1.0
 50
0.0
 71
     0
 42
0.0
  3
txt
  4

  0
ENDTAB
  0
TABLE
  2
VIEW
  5
5
100
AcDbSymbolTable
 70
     0
  0
ENDTAB
  0
TABLE
  2
UCS
  5
6
100
AcDbSymbolTable
 70
     0
  0
ENDTAB
  0
TABLE
  2
APPID
  5
8
100
AcDbSymbolTable
 70
     1
  0
APPID
  5
16
100
AcDbSymbolTableRecord
100
AcDbRegAppTableRecord
  2
ACAD
 70
     0
  0
ENDTAB
  0
TABLE
  2
DIMSTYLE
  5
9
100
AcDbSymbolTable
 70
     1
  0
DIMSTYLE
105
18
100
AcDbSymbolTableRecord
100
AcDbDimStyleTableRecord
  2
STANDARD
 70
     0
  3

  4

  5

  6

  7

 40
1.0
 41
0.18
 42
0.0625
 43
0.38
 44
0.18
 45
0.0
 46
0.0
 47
0.0
 48
0.0
 71
     0
 72
     0
 73
     1
 74
     1
 75
     0
 76
     0
 77
     0
 78
     0
140
0.18
141
0.09
142
0.0
143
25.4
144
1.0
145
0.0
146
1.0
147
0.09
170
     0
171
     2
172
     0
173
     0
174
     0
175
     0
176
     0
177
     0
178
     0
270
     2
271
     4
272
     4
273
     2
274
     2
275
     0
280
     0
281
     0
282
     0
283
     1
284
     0
285
     0
286
     0
287
     0
288
     0
340
17
  0
ENDTAB
  0
TABLE
  2
BLOCK_RECORD
  5
1
100
AcDbSymbolTable
 70
     0
  0
BLOCK_RECORD
  5
A
100
AcDbSymbolTableRecord
100
AcDbBlockTableRecord
  2
*MODEL_SPACE
  0
BLOCK_RECORD
  5
B
100
AcDbSymbolTableRecord
100
AcDbBlockTableRecord
  2
*PAPER_SPACE
  0
ENDTAB
  0
ENDSEC
  0
SECTION
  2
BLOCKS
  0
BLOCK
  5
D
100
AcDbEntity
  8
0
100
AcDbBlockBegin
  2
*MODEL_SPACE
 70
     0
 10
0.0
 20
0.0
 30
0.0
  3
*MODEL_SPACE
  1

  0
ENDBLK
  5
E
100
AcDbEntity
  8
0
100
AcDbBlockEnd
  0
BLOCK
  5
F
100
AcDbEntity
 67
     1
  8
0
100
AcDbBlockBegin
  2
*PAPER_SPACE
 70
     0
 10
0.0
 20
0.0
 30
0.0
  3
*PAPER_SPACE
  1

  0
ENDBLK
  5
10
100
AcDbEntity
 67
     1
  8
0
100
AcDbBlockEnd
  0
ENDSEC
  0
SECTION
  2
ENTITIES
  0
POLYLINE
  5
26
100
AcDbEntity
  8
___C___1
  6
CONTINUOUS
 62
    18
100
AcDbPolyFaceMesh
 66
     1
 10
0.0
 20
0.0
 30
0.0
 70
    64
  0
VERTEX
  5
27
100
AcDbEntity
  8
0
100
AcDbVertex
100
AcDbPolyFaceMeshVertex
 10
11.433741
 20
13.721823
 30
0.0
 70
   192
  0
VERTEX
  5
28
100
AcDbEntity
  8
0
100
AcDbVertex
100
AcDbPolyFaceMeshVertex
 10
11.323292
 20
13.975028
 30
0.0
 70
   192
  0
VERTEX
  5
29
100
AcDbEntity
  8
0
100
AcDbVertex
100
AcDbPolyFaceMeshVertex
 10
11.250712
 20
13.975028
 30
0.0
 70
   192
  0
VERTEX
  5
2A
100
AcDbEntity
  8
0
100
AcDbVertex
100
AcDbPolyFaceMeshVertex
 10
11.399029
 20
13.635285
 30
0.0
 70
   192
  0
VERTEX
  5
2B
100
AcDbEntity
  8
0
100
AcDbVertex
100
AcDbPolyFaceMeshVertex
 10
11.399029
 20
13.350028
 30
0.0
 70
   192
  0
VERTEX
  5
2C
100
AcDbEntity
  8
0
100
AcDbVertex
100
AcDbPolyFaceMeshVertex
 10
11.471609
 20
13.350028
 30
0.0
 70
   192
  0
VERTEX
  5
2D
100
AcDbEntity
  8
0
100
AcDbVertex
100
AcDbPolyFaceMeshVertex
 10
11.471609
 20
13.635285
 30
0.0
 70
   192
  0
VERTEX
  5
2E
100
AcDbEntity
  8
0
100
AcDbVertex
100
AcDbPolyFaceMeshVertex
 10
11.619926
 20
13.975028
 30
0.0
 70
   192
  0
VERTEX
  5
2F
100
AcDbEntity
  8
0
100
AcDbVertex
100
AcDbPolyFaceMeshVertex
 10
11.547346
 20
13.975028
 30
0.0
 70
   192
  0
VERTEX
  5
30
100
AcDbEntity
  8
0
100
AcDbVertex
100
AcDbPolyFaceMeshVertex
 10
11.436897
 20
13.721823
 30
0.0
 70
   192
  0
VERTEX
  5
31
100
AcDbEntity
  8
0
100
AcDbVertex
100
AcDbPolyFaceMeshVertex
 10
11.433741
 20
13.721823
 30
0.0
 70
   192
  0
VERTEX
  5
32
100
AcDbEntity
  8
0
100
AcDbVertex
100
AcDbPolyFaceMeshVertex
 10
11.323292
 20
13.975028
 30
0.0
 70
   192
  0
VERTEX
  5
33
100
AcDbEntity
  8
0
100
AcDbVertex
100
AcDbPolyFaceMeshVertex
 10
11.250712
 20
13.975028
 30
0.0
 70
   192
  0
VERTEX
  5
34
100
AcDbEntity
  8
0
100
AcDbVertex
100
AcDbPolyFaceMeshVertex
 10
11.399029
 20
13.635285
 30
0.0
 70
   192
  0
VERTEX
  5
35
100
AcDbEntity
  8
0
100
AcDbVertex
100
AcDbPolyFaceMeshVertex
 10
11.399029
 20
13.350028
 30
0.0
 70
   192
  0
VERTEX
  5
36
100
AcDbEntity
  8
0
100
AcDbVertex
100
AcDbPolyFaceMeshVertex
 10
11.471609
 20
13.350028
 30
0.0
 70
   192
  0
VERTEX
  5
37
100
AcDbEntity
  8
0
100
AcDbVertex
100
AcDbPolyFaceMeshVertex
 10
11.471609
 20
13.635285
 30
0.0
 70
   192
  0
VERTEX
  5
38
100
AcDbEntity
  8
0
100
AcDbVertex
100
AcDbPolyFaceMeshVertex
 10
11.619926
 20
13.975028
 30
0.0
 70
   192
  0
VERTEX
  5
39
100
AcDbEntity
  8
0
100
AcDbVertex
100
AcDbPolyFaceMeshVertex
 10
11.547346
 20
13.975028
 30
0.0
 70
   192
  0
VERTEX
  5
3A
100
AcDbEntity
  8
0
100
AcDbVertex
100
AcDbPolyFaceMeshVertex
 10
11.436897
 20
13.721823
 30
0.0
 70
   192
  0
VERTEX
  5
3B
100
AcDbEntity
  8
___C___1
  6
CONTINUOUS
 62
    18
100
AcDbFaceRecord
 10
0.0
 20
0.0
 30
0.0
 70
   128
 71
     1
 72
     2
 73
     3
 74
     4
  0
VERTEX
  5
3C
100
AcDbEntity
  8
___C___1
  6
CONTINUOUS
 62
    18
100
AcDbFaceRecord
 10
0.0
 20
0.0
 30
0.0
 70
   128
 71
    11
 72
    20
 73
    17
 74
    14
  0
VERTEX
  5
3D
100
AcDbEntity
  8
___C___1
  6
CONTINUOUS
 62
    18
100
AcDbFaceRecord
 10
0.0
 20
0.0
 30
0.0
 70
   128
 71
     5
 72
     6
 73
     7
 74
    10
  0
VERTEX
  5
3E
100
AcDbEntity
  8
___C___1
  6
CONTINUOUS
 62
    18
100
AcDbFaceRecord
 10
0.0
 20
0.0
 30
0.0
 70
   128
 71
     8
 72
     9
 73
    10
 74
     7
  0
VERTEX
  5
3F
100
AcDbEntity
  8
___C___1
  6
CONTINUOUS
 62
    18
100
AcDbFaceRecord
 10
0.0
 20
0.0
 30
0.0
 70
   128
 71
    12
 72
    11
 73
    14
 74
    13
  0
VERTEX
  5
40
100
AcDbEntity
  8
___C___1
  6
CONTINUOUS
 62
    18
100
AcDbFaceRecord
 10
0.0
 20
0.0
 30
0.0
 70
   128
 71
    14
 72
    17
 73
    16
 74
    15
  0
VERTEX
  5
41
100
AcDbEntity
  8
___C___1
  6
CONTINUOUS
 62
    18
100
AcDbFaceRecord
 10
0.0
 20
0.0
 30
0.0
 70
   128
 71
    18
 72
    17
 73
    20
 74
    19
  0
VERTEX
  5
42
100
AcDbEntity
  8
___C___1
  6
CONTINUOUS
 62
    18
100
AcDbFaceRecord
 10
0.0
 20
0.0
 30
0.0
 70
   128
 71
     4
 72
     5
 73
    10
 74
     1
  0
SEQEND
  5
43
100
AcDbEntity
  8
___C___1
  6
CONTINUOUS
 62
    18
  0
POLYLINE
  5
44
100
AcDbEntity
  8
___C___1
  6
CONTINUOUS
 62
    18
100
AcDbPolyFaceMesh
 66
     1
 10
0.0
 20
0.0
 30
0.0
 70
    64
  0
VERTEX
  5
45
100
AcDbEntity
  8
0
100
AcDbVertex
100
AcDbPolyFaceMeshVertex
 10
11.689351
 20
13.975028
 30
0.0
 70
   192
  0
VERTEX
  5
46
100
AcDbEntity
  8
0
100
AcDbVertex
100
AcDbPolyFaceMeshVertex
 10
11.689351
 20
13.914131
 30
0.0
 70
   192
  0
VERTEX
  5
47
100
AcDbEntity
  8
0
100
AcDbVertex
100
AcDbPolyFaceMeshVertex
 10
11.926027
 20
13.914131
 30
0.0
 70
   192
  0
VERTEX
  5
48
100
AcDbEntity
  8
0
100
AcDbVertex
100
AcDbPolyFaceMeshVertex
 10
11.670417
 20
13.410926
 30
0.0
 70
   192
  0
VERTEX
  5
49
100
AcDbEntity
  8
0
100
AcDbVertex
100
AcDbPolyFaceMeshVertex
 10
11.670417
 20
13.350028
 30
0.0
 70
   192
  0
VERTEX
  5
4A
100
AcDbEntity
  8
0
100
AcDbVertex
100
AcDbPolyFaceMeshVertex
 10
12.008075
 20
13.350028
 30
0.0
 70
   192
  0
VERTEX
  5
4B
100
AcDbEntity
  8
0
100
AcDbVertex
100
AcDbPolyFaceMeshVertex
 10
12.008075
 20
13.410926
 30
0.0
 70
   192
  0
VERTEX
  5
4C
100
AcDbEntity
  8
0
100
AcDbVertex
100
AcDbPolyFaceMeshVertex
 10
11.742998
 20
13.410926
 30
0.0
 70
   192
  0
VERTEX
  5
4D
100
AcDbEntity
  8
0
100
AcDbVertex
100
AcDbPolyFaceMeshVertex
 10
11.998608
 20
13.914131
 30
0.0
 70
   192
  0
VERTEX
  5
4E
100
AcDbEntity
  8
0
100
AcDbVertex
100
AcDbPolyFaceMeshVertex
 10
11.998608
 20
13.975028
 30
0.0
 70
   192
  0
VERTEX
  5
4F
100
AcDbEntity
  8
0
100
AcDbVertex
100
AcDbPolyFaceMeshVertex
 10
11.689351
 20
13.975028
 30
0.0
 70
   192
  0
VERTEX
  5
50
100
AcDbEntity
  8
0
100
AcDbVertex
100
AcDbPolyFaceMeshVertex
 10
11.689351
 20
13.914131
 30
0.0
 70
   192
  0
VERTEX
  5
51
100
AcDbEntity
  8
0
100
AcDbVertex
100
AcDbPolyFaceMeshVertex
 10
11.926027
 20
13.914131
 30
0.0
 70
   192
  0
VERTEX
  5
52
100
AcDbEntity
  8
0
100
AcDbVertex
100
AcDbPolyFaceMeshVertex
 10
11.670417
 20
13.410926
 30
0.0
 70
   192
  0
VERTEX
  5
53
100
AcDbEntity
  8
0
100
AcDbVertex
100
AcDbPolyFaceMeshVertex
 10
11.670417
 20
13.350028
 30
0.0
 70
   192
  0
VERTEX
  5
54
100
AcDbEntity
  8
0
100
AcDbVertex
100
AcDbPolyFaceMeshVertex
 10
12.008075
 20
13.350028
 30
0.0
 70
   192
  0
VERTEX
  5
55
100
AcDbEntity
  8
0
100
AcDbVertex
100
AcDbPolyFaceMeshVertex
 10
12.008075
 20
13.410926
 30
0.0
 70
   192
  0
VERTEX
  5
56
100
AcDbEntity
  8
0
100
AcDbVertex
100
AcDbPolyFaceMeshVertex
 10
11.742998
 20
13.410926
 30
0.0
 70
   192
  0
VERTEX
  5
57
100
AcDbEntity
  8
0
100
AcDbVertex
100
AcDbPolyFaceMeshVertex
 10
11.998608
 20
13.914131
 30
0.0
 70
   192
  0
VERTEX
  5
58
100
AcDbEntity
  8
0
100
AcDbVertex
100
AcDbPolyFaceMeshVertex
 10
11.998608
 20
13.975028
 30
0.0
 70
   192
  0
VERTEX
  5
59
100
AcDbEntity
  8
___C___1
  6
CONTINUOUS
 62
    18
100
AcDbFaceRecord
 10
0.0
 20
0.0
 30
0.0
 70
   128
 71
     3
 72
     4
 73
     8
 74
     9
  0
VERTEX
  5
5A
100
AcDbEntity
  8
___C___1
  6
CONTINUOUS
 62
    18
100
AcDbFaceRecord
 10
0.0
 20
0.0
 30
0.0
 70
   128
 71
    19
 72
    18
 73
    14
 74
    13
  0
VERTEX
  5
5B
100
AcDbEntity
  8
___C___1
  6
CONTINUOUS
 62
    18
100
AcDbFaceRecord
 10
0.0
 20
0.0
 30
0.0
 70
   128
 71
    20
 72
    13
 73
    11
  0
VERTEX
  5
5C
100
AcDbEntity
  8
___C___1
  6
CONTINUOUS
 62
    18
100
AcDbFaceRecord
 10
0.0
 20
0.0
 30
0.0
 70
   128
 71
    20
 72
    19
 73
    13
  0
VERTEX
  5
5D
100
AcDbEntity
  8
___C___1
  6
CONTINUOUS
 62
    18
100
AcDbFaceRecord
 10
0.0
 20
0.0
 30
0.0
 70
   128
 71
    12
 72
    11
 73
    13
  0
VERTEX
  5
5E
100
AcDbEntity
  8
___C___1
  6
CONTINUOUS
 62
    18
100
AcDbFaceRecord
 10
0.0
 20
0.0
 30
0.0
 70
   128
 71
    15
 72
    18
 73
    16
  0
VERTEX
  5
5F
100
AcDbEntity
  8
___C___1
  6
CONTINUOUS
 62
    18
100
AcDbFaceRecord
 10
0.0
 20
0.0
 30
0.0
 70
   128
 71
    15
 72
    14
 73
    18
  0
VERTEX
  5
60
100
AcDbEntity
  8
___C___1
  6
CONTINUOUS
 62
    18
100
AcDbFaceRecord
 10
0.0
 20
0.0
 30
0.0
 70
   128
 71
    17
 72
    16
 73
    18
  0
VERTEX
  5
61
100
AcDbEntity
  8
___C___1
  6
CONTINUOUS
 62
    18
100
AcDbFaceRecord
 10
0.0
 20
0.0
 30
0.0
 70
   128
 71
     6
 72
     8
 73
     5
  0
VERTEX
  5
62
100
AcDbEntity
  8
___C___1
  6
CONTINUOUS
 62
    18
100
AcDbFaceRecord
 10
0.0
 20
0.0
 30
0.0
 70
   128
 71
     6
 72
     7
 73
     8
  0
VERTEX
  5
63
100
AcDbEntity
  8
___C___1
  6
CONTINUOUS
 62
    18
100
AcDbFaceRecord
 10
0.0
 20
0.0
 30
0.0
 70
   128
 71
     4
 72
     5
 73
     8
  0
VERTEX
  5
64
100
AcDbEntity
  8
___C___1
  6
CONTINUOUS
 62
    18
100
AcDbFaceRecord
 10
0.0
 20
0.0
 30
0.0
 70
   128
 71
     1
 72
     3
 73
    10
  0
VERTEX
  5
65
100
AcDbEntity
  8
___C___1
  6
CONTINUOUS
 62
    18
100
AcDbFaceRecord
 10
0.0
 20
0.0
 30
0.0
 70
   128
 71
     1
 72
     2
 73
     3
  0
VERTEX
  5
66
100
AcDbEntity
  8
___C___1
  6
CONTINUOUS
 62
    18
100
AcDbFaceRecord
 10
0.0
 20
0.0
 30
0.0
 70
   128
 71
     9
 72
    10
 73
     3
  0
SEQEND
  5
67
100
AcDbEntity
  8
___C___1
  6
CONTINUOUS
 62
    18
  0
POLYLINE
  5
68
100
AcDbEntity
  8
___C___1
  6
CONTINUOUS
 62
    18
100
AcDbPolyFaceMesh
 66
     1
 10
0.0
 20
0.0
 30
0.0
 70
    64
  0
VERTEX
  5
69
100
AcDbEntity
  8
0
100
AcDbVertex
100
AcDbPolyFaceMeshVertex
 10
12.21635
 20
13.350028
 30
0.0
 70
   192
  0
VERTEX
  5
6A
100
AcDbEntity
  8
0
100
AcDbVertex
100
AcDbPolyFaceMeshVertex
 10
12.288931
 20
13.350028
 30
0.0
 70
   192
  0
VERTEX
  5
6B
100
AcDbEntity
  8
0
100
AcDbVertex
100
AcDbPolyFaceMeshVertex
 10
12.288931
 20
13.975028
 30
0.0
 70
   192
  0
VERTEX
  5
6C
100
AcDbEntity
  8
0
100
AcDbVertex
100
AcDbPolyFaceMeshVertex
 10
12.251062
 20
13.975028
 30
0.0
 70
   192
  0
VERTEX
  5
6D
100
AcDbEntity
  8
0
100
AcDbVertex
100
AcDbPolyFaceMeshVertex
 10
12.235876
 20
13.935765
 30
0.0
 70
   192
  0
VERTEX
  5
6E
100
AcDbEntity
  8
0
100
AcDbVertex
100
AcDbPolyFaceMeshVertex
 10
12.20925
 20
13.907721
 30
0.0
 70
   192
  0
VERTEX
  5
6F
100
AcDbEntity
  8
0
100
AcDbVertex
100
AcDbPolyFaceMeshVertex
 10
12.171184
 20
13.890894
 30
0.0
 70
   192
  0
VERTEX
  5
70
100
AcDbEntity
  8
0
100
AcDbVertex
100
AcDbPolyFaceMeshVertex
 10
12.12168
 20
13.885285
 30
0.0
 70
   192
  0
VERTEX
  5
71
100
AcDbEntity
  8
0
100
AcDbVertex
100
AcDbPolyFaceMeshVertex
 10
12.12168
 20
13.846823
 30
0.0
 70
   192
  0
VERTEX
  5
72
100
AcDbEntity
  8
0
100
AcDbVertex
100
AcDbPolyFaceMeshVertex
 10
12.21635
 20
13.846823
 30
0.0
 70
   192
  0
VERTEX
  5
73
100
AcDbEntity
  8
0
100
AcDbVertex
100
AcDbPolyFaceMeshVertex
 10
12.21635
 20
13.600028
 30
0.0
 70
   192
  0
VERTEX
  5
74
100
AcDbEntity
  8
0
100
AcDbVertex
100
AcDbPolyFaceMeshVertex
 10
12.21635
 20
13.350028
 30
0.0
 70
   192
  0
VERTEX
  5
75
100
AcDbEntity
  8
0
100
AcDbVertex
100
AcDbPolyFaceMeshVertex
 10
12.288931
 20
13.350028
 30
0.0
 70
   192
  0
VERTEX
  5
76
100
AcDbEntity
  8
0
100
AcDbVertex
100
AcDbPolyFaceMeshVertex
 10
12.288931
 20
13.975028
 30
0.0
 70
   192
  0
VERTEX
  5
77
100
AcDbEntity
  8
0
100
AcDbVertex
100
AcDbPolyFaceMeshVertex
 10
12.251062
 20
13.975028
 30
0.0
 70
   192
  0
VERTEX
  5
78
100
AcDbEntity
  8
0
100
AcDbVertex
100
AcDbPolyFaceMeshVertex
 10
12.235876
 20
13.935765
 30
0.0
 70
   192
  0
VERTEX
  5
79
100
AcDbEntity
  8
0
100
AcDbVertex
100
AcDbPolyFaceMeshVertex
 10
12.20925
 20
13.907721
 30
0.0
 70
   192
  0
VERTEX
  5
7A
100
AcDbEntity
  8
0
100
AcDbVertex
100
AcDbPolyFaceMeshVertex
 10
12.171184
 20
13.890894
 30
0.0
 70
   192
  0
VERTEX
  5
7B
100
AcDbEntity
  8
0
100
AcDbVertex
100
AcDbPolyFaceMeshVertex
 10
12.12168
 20
13.885285
 30
0.0
 70
   192
  0
VERTEX
  5
7C
100
AcDbEntity
  8
0
100
AcDbVertex
100
AcDbPolyFaceMeshVertex
 10
12.12168
 20
13.846823
 30
0.0
 70
   192
  0
VERTEX
  5
7D
100
AcDbEntity
  8
0
100
AcDbVertex
100
AcDbPolyFaceMeshVertex
 10
12.21635
 20
13.846823
 30
0.0
 70
   192
  0
VERTEX
  5
7E
100
AcDbEntity
  8
0
100
AcDbVertex
100
AcDbPolyFaceMeshVertex
 10
12.21635
 20
13.600028
 30
0.0
 70
   192
  0
VERTEX
  5
7F
100
AcDbEntity
  8
___C___1
  6
CONTINUOUS
 62
    18
100
AcDbFaceRecord
 10
0.0
 20
0.0
 30
0.0
 70
   128
 71
     6
 72
    10
 73
     5
  0
VERTEX
  5
80
100
AcDbEntity
  8
___C___1
  6
CONTINUOUS
 62
    18
100
AcDbFaceRecord
 10
0.0
 20
0.0
 30
0.0
 70
   128
 71
     7
 72
     8
 73
     9
 74
    10
  0
VERTEX
  5
81
100
AcDbEntity
  8
___C___1
  6
CONTINUOUS
 62
    18
100
AcDbFaceRecord
 10
0.0
 20
0.0
 30
0.0
 70
   128
 71
    14
 72
    16
 73
    15
  0
VERTEX
  5
82
100
AcDbEntity
  8
___C___1
  6
CONTINUOUS
 62
    18
100
AcDbFaceRecord
 10
0.0
 20
0.0
 30
0.0
 70
   128
 71
    17
 72
    16
 73
    21
  0
VERTEX
  5
83
100
AcDbEntity
  8
___C___1
  6
CONTINUOUS
 62
    18
100
AcDbFaceRecord
 10
0.0
 20
0.0
 30
0.0
 70
   128
 71
    18
 72
    17
 73
    21
  0
VERTEX
  5
84
100
AcDbEntity
  8
___C___1
  6
CONTINUOUS
 62
    18
100
AcDbFaceRecord
 10
0.0
 20
0.0
 30
0.0
 70
   128
 71
    19
 72
    18
 73
    21
 74
    20
  0
VERTEX
  5
85
100
AcDbEntity
  8
___C___1
  6
CONTINUOUS
 62
    18
100
AcDbFaceRecord
 10
0.0
 20
0.0
 30
0.0
 70
   128
 71
     6
 72
     7
 73
    10
  0
VERTEX
  5
86
100
AcDbEntity
  8
___C___1
  6
CONTINUOUS
 62
    18
100
AcDbFaceRecord
 10
0.0
 20
0.0
 30
0.0
 70
   128
 71
     3
 72
    11
 73
     2
  0
VERTEX
  5
87
100
AcDbEntity
  8
___C___1
  6
CONTINUOUS
 62
    18
100
AcDbFaceRecord
 10
0.0
 20
0.0
 30
0.0
 70
   128
 71
     4
 72
    11
 73
     3
  0
VERTEX
  5
88
100
AcDbEntity
  8
___C___1
  6
CONTINUOUS
 62
    18
100
AcDbFaceRecord
 10
0.0
 20
0.0
 30
0.0
 70
   128
 71
     5
 72
    11
 73
     4
  0
VERTEX
  5
89
100
AcDbEntity
  8
___C___1
  6
CONTINUOUS
 62
    18
100
AcDbFaceRecord
 10
0.0
 20
0.0
 30
0.0
 70
   128
 71
     5
 72
    10
 73
    11
  0
VERTEX
  5
8A
100
AcDbEntity
  8
___C___1
  6
CONTINUOUS
 62
    18
100
AcDbFaceRecord
 10
0.0
 20
0.0
 30
0.0
 70
   128
 71
     1
 72
     2
 73
    11
  0
VERTEX
  5
8B
100
AcDbEntity
  8
___C___1
  6
CONTINUOUS
 62
    18
100
AcDbFaceRecord
 10
0.0
 20
0.0
 30
0.0
 70
   128
 71
    14
 72
    22
 73
    16
  0
VERTEX
  5
8C
100
AcDbEntity
  8
___C___1
  6
CONTINUOUS
 62
    18
100
AcDbFaceRecord
 10
0.0
 20
0.0
 30
0.0
 70
   128
 71
    13
 72
    22
 73
    14
  0
VERTEX
  5
8D
100
AcDbEntity
  8
___C___1
  6
CONTINUOUS
 62
    18
100
AcDbFaceRecord
 10
0.0
 20
0.0
 30
0.0
 70
   128
 71
    13
 72
    12
 73
    22
  0
VERTEX
  5
8E
100
AcDbEntity
  8
___C___1
  6
CONTINUOUS
 62
    18
100
AcDbFaceRecord
 10
0.0
 20
0.0
 30
0.0
 70
   128
 71
    21
 72
    16
 73
    22
  0
SEQEND
  5
8F
100
AcDbEntity
  8
___C___1
  6
CONTINUOUS
 62
    18
  0
POLYLINE
  5
90
100
AcDbEntity
  8
___C___1
  6
CONTINUOUS
 62
    18
100
AcDbPolyFaceMesh
 66
     1
 10
0.0
 20
0.0
 30
0.0
 70
    64
  0
VERTEX
  5
91
100
AcDbEntity
  8
0
100
AcDbVertex
100
AcDbPolyFaceMeshVertex
 10
12.683391
 20
13.350028
 30
0.0
 70
   192
  0
VERTEX
  5
92
100
AcDbEntity
  8
0
100
AcDbVertex
100
AcDbPolyFaceMeshVertex
 10
12.755971
 20
13.350028
 30
0.0
 70
   192
  0
VERTEX
  5
93
100
AcDbEntity
  8
0
100
AcDbVertex
100
AcDbPolyFaceMeshVertex
 10
12.755971
 20
13.497464
 30
0.0
 70
   192
  0
VERTEX
  5
94
100
AcDbEntity
  8
0
100
AcDbVertex
100
AcDbPolyFaceMeshVertex
 10
12.822241
 20
13.497464
 30
0.0
 70
   192
  0
VERTEX
  5
95
100
AcDbEntity
  8
0
100
AcDbVertex
100
AcDbPolyFaceMeshVertex
 10
12.822241
 20
13.558362
 30
0.0
 70
   192
  0
VERTEX
  5
96
100
AcDbEntity
  8
0
100
AcDbVertex
100
AcDbPolyFaceMeshVertex
 10
12.755971
 20
13.558362
 30
0.0
 70
   192
  0
VERTEX
  5
97
100
AcDbEntity
  8
0
100
AcDbVertex
100
AcDbPolyFaceMeshVertex
 10
12.755971
 20
13.975028
 30
0.0
 70
   192
  0
VERTEX
  5
98
100
AcDbEntity
  8
0
100
AcDbVertex
100
AcDbPolyFaceMeshVertex
 10
12.683391
 20
13.975028
 30
0.0
 70
   192
  0
VERTEX
  5
99
100
AcDbEntity
  8
0
100
AcDbVertex
100
AcDbPolyFaceMeshVertex
 10
12.47196
 20
13.558362
 30
0.0
 70
   192
  0
VERTEX
  5
9A
100
AcDbEntity
  8
0
100
AcDbVertex
100
AcDbPolyFaceMeshVertex
 10
12.47196
 20
13.497464
 30
0.0
 70
   192
  0
VERTEX
  5
9B
100
AcDbEntity
  8
0
100
AcDbVertex
100
AcDbPolyFaceMeshVertex
 10
12.683391
 20
13.497464
 30
0.0
 70
   192
  0
VERTEX
  5
9C
100
AcDbEntity
  8
0
100
AcDbVertex
100
AcDbPolyFaceMeshVertex
 10
12.683391
 20
13.423746
 30
0.0
 70
   192
  0
VERTEX
  5
9D
100
AcDbEntity
  8
0
100
AcDbVertex
100
AcDbPolyFaceMeshVertex
 10
12.683391
 20
13.558362
 30
0.0
 70
   192
  0
VERTEX
  5
9E
100
AcDbEntity
  8
0
100
AcDbVertex
100
AcDbPolyFaceMeshVertex
 10
12.541385
 20
13.558362
 30
0.0
 70
   192
  0
VERTEX
  5
9F
100
AcDbEntity
  8
0
100
AcDbVertex
100
AcDbPolyFaceMeshVertex
 10
12.683391
 20
13.840413
 30
0.0
 70
   192
  0
VERTEX
  5
A0
100
AcDbEntity
  8
0
100
AcDbVertex
100
AcDbPolyFaceMeshVertex
 10
12.683391
 20
13.350028
 30
0.0
 70
   192
  0
VERTEX
  5
A1
100
AcDbEntity
  8
0
100
AcDbVertex
100
AcDbPolyFaceMeshVertex
 10
12.755971
 20
13.350028
 30
0.0
 70
   192
  0
VERTEX
  5
A2
100
AcDbEntity
  8
0
100
AcDbVertex
100
AcDbPolyFaceMeshVertex
 10
12.755971
 20
13.497464
 30
0.0
 70
   192
  0
VERTEX
  5
A3
100
AcDbEntity
  8
0
100
AcDbVertex
100
AcDbPolyFaceMeshVertex
 10
12.822241
 20
13.497464
 30
0.0
 70
   192
  0
VERTEX
  5
A4
100
AcDbEntity
  8
0
100
AcDbVertex
100
AcDbPolyFaceMeshVertex
 10
12.822241
 20
13.558362
 30
0.0
 70
   192
  0
VERTEX
  5
A5
100
AcDbEntity
  8
0
100
AcDbVertex
100
AcDbPolyFaceMeshVertex
 10
12.755971
 20
13.558362
 30
0.0
 70
   192
  0
VERTEX
  5
A6
100
AcDbEntity
  8
0
100
AcDbVertex
100
AcDbPolyFaceMeshVertex
 10
12.755971
 20
13.975028
 30
0.0
 70
   192
  0
VERTEX
  5
A7
100
AcDbEntity
  8
0
100
AcDbVertex
100
AcDbPolyFaceMeshVertex
 10
12.683391
 20
13.975028
 30
0.0
 70
   192
  0
VERTEX
  5
A8
100
AcDbEntity
  8
0
100
AcDbVertex
100
AcDbPolyFaceMeshVertex
 10
12.47196
 20
13.558362
 30
0.0
 70
   192
  0
VERTEX
  5
A9
100
AcDbEntity
  8
0
100
AcDbVertex
100
AcDbPolyFaceMeshVertex
 10
12.47196
 20
13.497464
 30
0.0
 70
   192
  0
VERTEX
  5
AA
100
AcDbEntity
  8
0
100
AcDbVertex
100
AcDbPolyFaceMeshVertex
 10
12.683391
 20
13.497464
 30
0.0
 70
   192
  0
VERTEX
  5
AB
100
AcDbEntity
  8
0
100
AcDbVertex
100
AcDbPolyFaceMeshVertex
 10
12.683391
 20
13.423746
 30
0.0
 70
   192
  0
VERTEX
  5
AC
100
AcDbEntity
  8
0
100
AcDbVertex
100
AcDbPolyFaceMeshVertex
 10
12.683391
 20
13.558362
 30
0.0
 70
   192
  0
VERTEX
  5
AD
100
AcDbEntity
  8
0
100
AcDbVertex
100
AcDbPolyFaceMeshVertex
 10
12.541385
 20
13.558362
 30
0.0
 70
   192
  0
VERTEX
  5
AE
100
AcDbEntity
  8
0
100
AcDbVertex
100
AcDbPolyFaceMeshVertex
 10
12.683391
 20
13.840413
 30
0.0
 70
   192
  0
VERTEX
  5
AF
100
AcDbEntity
  8
___C___1
  6
CONTINUOUS
 62
    18
100
AcDbFaceRecord
 10
0.0
 20
0.0
 30
0.0
 70
   128
 71
     4
 72
     5
 73
     6
 74
     3
  0
VERTEX
  5
B0
100
AcDbEntity
  8
___C___1
  6
CONTINUOUS
 62
    18
100
AcDbFaceRecord
 10
0.0
 20
0.0
 30
0.0
 70
   128
 71
     9
 72
    14
 73
    15
 74
     8
  0
VERTEX
  5
B1
100
AcDbEntity
  8
___C___1
  6
CONTINUOUS
 62
    18
100
AcDbFaceRecord
 10
0.0
 20
0.0
 30
0.0
 70
   128
 71
    19
 72
    18
 73
    21
 74
    20
  0
VERTEX
  5
B2
100
AcDbEntity
  8
___C___1
  6
CONTINUOUS
 62
    18
100
AcDbFaceRecord
 10
0.0
 20
0.0
 30
0.0
 70
   128
 71
    23
 72
    30
 73
    29
 74
    24
  0
VERTEX
  5
B3
100
AcDbEntity
  8
___C___1
  6
CONTINUOUS
 62
    18
100
AcDbFaceRecord
 10
0.0
 20
0.0
 30
0.0
 70
   128
 71
    15
 72
     3
 73
     8
  0
VERTEX
  5
B4
100
AcDbEntity
  8
___C___1
  6
CONTINUOUS
 62
    18
100
AcDbFaceRecord
 10
0.0
 20
0.0
 30
0.0
 70
   128
 71
    13
 72
     3
 73
    15
  0
VERTEX
  5
B5
100
AcDbEntity
  8
___C___1
  6
CONTINUOUS
 62
    18
100
AcDbFaceRecord
 10
0.0
 20
0.0
 30
0.0
 70
   128
 71
    11
 72
     3
 73
    13
  0
VERTEX
  5
B6
100
AcDbEntity
  8
___C___1
  6
CONTINUOUS
 62
    18
100
AcDbFaceRecord
 10
0.0
 20
0.0
 30
0.0
 70
   128
 71
    12
 72
     3
 73
    11
  0
VERTEX
  5
B7
100
AcDbEntity
  8
___C___1
  6
CONTINUOUS
 62
    18
100
AcDbFaceRecord
 10
0.0
 20
0.0
 30
0.0
 70
   128
 71
     1
 72
     3
 73
    12
  0
VERTEX
  5
B8
100
AcDbEntity
  8
___C___1
  6
CONTINUOUS
 62
    18
100
AcDbFaceRecord
 10
0.0
 20
0.0
 30
0.0
 70
   128
 71
     1
 72
     2
 73
     3
  0
VERTEX
  5
B9
100
AcDbEntity
  8
___C___1
  6
CONTINUOUS
 62
    18
100
AcDbFaceRecord
 10
0.0
 20
0.0
 30
0.0
 70
   128
 71
     6
 72
     8
 73
     3
  0
VERTEX
  5
BA
100
AcDbEntity
  8
___C___1
  6
CONTINUOUS
 62
    18
100
AcDbFaceRecord
 10
0.0
 20
0.0
 30
0.0
 70
   128
 71
     7
 72
     8
 73
     6
  0
VERTEX
  5
BB
100
AcDbEntity
  8
___C___1
  6
CONTINUOUS
 62
    18
100
AcDbFaceRecord
 10
0.0
 20
0.0
 30
0.0
 70
   128
 71
    27
 72
    18
 73
    16
  0
VERTEX
  5
BC
100
AcDbEntity
  8
___C___1
  6
CONTINUOUS
 62
    18
100
AcDbFaceRecord
 10
0.0
 20
0.0
 30
0.0
 70
   128
 71
    26
 72
    18
 73
    27
  0
VERTEX
  5
BD
100
AcDbEntity
  8
___C___1
  6
CONTINUOUS
 62
    18
100
AcDbFaceRecord
 10
0.0
 20
0.0
 30
0.0
 70
   128
 71
    28
 72
    18
 73
    26
  0
VERTEX
  5
BE
100
AcDbEntity
  8
___C___1
  6
CONTINUOUS
 62
    18
100
AcDbFaceRecord
 10
0.0
 20
0.0
 30
0.0
 70
   128
 71
    30
 72
    18
 73
    28
  0
VERTEX
  5
BF
100
AcDbEntity
  8
___C___1
  6
CONTINUOUS
 62
    18
100
AcDbFaceRecord
 10
0.0
 20
0.0
 30
0.0
 70
   128
 71
    23
 72
    18
 73
    30
  0
VERTEX
  5
C0
100
AcDbEntity
  8
___C___1
  6
CONTINUOUS
 62
    18
100
AcDbFaceRecord
 10
0.0
 20
0.0
 30
0.0
 70
   128
 71
    23
 72
    21
 73
    18
  0
VERTEX
  5
C1
100
AcDbEntity
  8
___C___1
  6
CONTINUOUS
 62
    18
100
AcDbFaceRecord
 10
0.0
 20
0.0
 30
0.0
 70
   128
 71
    23
 72
    22
 73
    21
  0
VERTEX
  5
C2
100
AcDbEntity
  8
___C___1
  6
CONTINUOUS
 62
    18
100
AcDbFaceRecord
 10
0.0
 20
0.0
 30
0.0
 70
   128
 71
    17
 72
    16
 73
    18
  0
VERTEX
  5
C3
100
AcDbEntity
  8
___C___1
  6
CONTINUOUS
 62
    18
100
AcDbFaceRecord
 10
0.0
 20
0.0
 30
0.0
 70
   128
 71
    25
 72
    29
 73
    26
  0
VERTEX
  5
C4
100
AcDbEntity
  8
___C___1
  6
CONTINUOUS
 62
    18
100
AcDbFaceRecord
 10
0.0
 20
0.0
 30
0.0
 70
   128
 71
    25
 72
    24
 73
    29
  0
VERTEX
  5
C5
100
AcDbEntity
  8
___C___1
  6
CONTINUOUS
 62
    18
100
AcDbFaceRecord
 10
0.0
 20
0.0
 30
0.0
 70
   128
 71
    28
 72
    26
 73
    29
  0
VERTEX
  5
C6
100
AcDbEntity
  8
___C___1
  6
CONTINUOUS
 62
    18
100
AcDbFaceRecord
 10
0.0
 20
0.0
 30
0.0
 70
   128
 71
    11
 72
    14
 73
    10
  0
VERTEX
  5
C7
100
AcDbEntity
  8
___C___1
  6
CONTINUOUS
 62
    18
100
AcDbFaceRecord
 10
0.0
 20
0.0
 30
0.0
 70
   128
 71
    11
 72
    13
 73
    14
  0
VERTEX
  5
C8
100
AcDbEntity
  8
___C___1
  6
CONTINUOUS
 62
    18
100
AcDbFaceRecord
 10
0.0
 20
0.0
 30
0.0
 70
   128
 71
     9
 72
    10
 73
    14
  0
SEQEND
  5
C9
100
AcDbEntity
  8
___C___1
  6
CONTINUOUS
 62
    18
  0
POLYLINE
  5
CA
100
AcDbEntity
  8
___C___1
  6
CONTINUOUS
 62
    18
100
AcDbPolyFaceMesh
 66
     1
 10
0.0
 20
0.0
 30
0.0
 70
    64
  0
VERTEX
  5
CB
100
AcDbEntity
  8
0
100
AcDbVertex
100
AcDbPolyFaceMeshVertex
 10
13.024204
 20
13.350028
 30
0.0
 70
   192
  0
VERTEX
  5
CC
100
AcDbEntity
  8
0
100
AcDbVertex
100
AcDbPolyFaceMeshVertex
 10
13.096785
 20
13.350028
 30
0.0
 70
   192
  0
VERTEX
  5
CD
100
AcDbEntity
  8
0
100
AcDbVertex
100
AcDbPolyFaceMeshVertex
 10
13.096785
 20
13.975028
 30
0.0
 70
   192
  0
VERTEX
  5
CE
100
AcDbEntity
  8
0
100
AcDbVertex
100
AcDbPolyFaceMeshVertex
 10
13.058917
 20
13.975028
 30
0.0
 70
   192
  0
VERTEX
  5
CF
100
AcDbEntity
  8
0
100
AcDbVertex
100
AcDbPolyFaceMeshVertex
 10
13.04373
 20
13.935765
 30
0.0
 70
   192
  0
VERTEX
  5
D0
100
AcDbEntity
  8
0
100
AcDbVertex
100
AcDbPolyFaceMeshVertex
 10
13.017104
 20
13.907721
 30
0.0
 70
   192
  0
VERTEX
  5
D1
100
AcDbEntity
  8
0
100
AcDbVertex
100
AcDbPolyFaceMeshVertex
 10
12.979038
 20
13.890894
 30
0.0
 70
   192
  0
VERTEX
  5
D2
100
AcDbEntity
  8
0
100
AcDbVertex
100
AcDbPolyFaceMeshVertex
 10
12.929534
 20
13.885285
 30
0.0
 70
   192
  0
VERTEX
  5
D3
100
AcDbEntity
  8
0
100
AcDbVertex
100
AcDbPolyFaceMeshVertex
 10
12.929534
 20
13.846823
 30
0.0
 70
   192
  0
VERTEX
  5
D4
100
AcDbEntity
  8
0
100
AcDbVertex
100
AcDbPolyFaceMeshVertex
 10
13.024204
 20
13.846823
 30
0.0
 70
   192
  0
VERTEX
  5
D5
100
AcDbEntity
  8
0
100
AcDbVertex
100
AcDbPolyFaceMeshVertex
 10
13.024204
 20
13.600028
 30
0.0
 70
   192
  0
VERTEX
  5
D6
100
AcDbEntity
  8
0
100
AcDbVertex
100
AcDbPolyFaceMeshVertex
 10
13.024204
 20
13.350028
 30
0.0
 70
   192
  0
VERTEX
  5
D7
100
AcDbEntity
  8
0
100
AcDbVertex
100
AcDbPolyFaceMeshVertex
 10
13.096785
 20
13.350028
 30
0.0
 70
   192
  0
VERTEX
  5
D8
100
AcDbEntity
  8
0
100
AcDbVertex
100
AcDbPolyFaceMeshVertex
 10
13.096785
 20
13.975028
 30
0.0
 70
   192
  0
VERTEX
  5
D9
100
AcDbEntity
  8
0
100
AcDbVertex
100
AcDbPolyFaceMeshVertex
 10
13.058917
 20
13.975028
 30
0.0
 70
   192
  0
VERTEX
  5
DA
100
AcDbEntity
  8
0
100
AcDbVertex
100
AcDbPolyFaceMeshVertex
 10
13.04373
 20
13.935765
 30
0.0
 70
   192
  0
VERTEX
  5
DB
100
AcDbEntity
  8
0
100
AcDbVertex
100
AcDbPolyFaceMeshVertex
 10
13.017104
 20
13.907721
 30
0.0
 70
   192
  0
VERTEX
  5
DC
100
AcDbEntity
  8
0
100
AcDbVertex
100
AcDbPolyFaceMeshVertex
 10
12.979038
 20
13.890894
 30
0.0
 70
   192
  0
VERTEX
  5
DD
100
AcDbEntity
  8
0
100
AcDbVertex
100
AcDbPolyFaceMeshVertex
 10
12.929534
 20
13.885285
 30
0.0
 70
   192
  0
VERTEX
  5
DE
100
AcDbEntity
  8
0
100
AcDbVertex
100
AcDbPolyFaceMeshVertex
 10
12.929534
 20
13.846823
 30
0.0
 70
   192
  0
VERTEX
  5
DF
100
AcDbEntity
  8
0
100
AcDbVertex
100
AcDbPolyFaceMeshVertex
 10
13.024204
 20
13.846823
 30
0.0
 70
   192
  0
VERTEX
  5
E0
100
AcDbEntity
  8
0
100
AcDbVertex
100
AcDbPolyFaceMeshVertex
 10
13.024204
 20
13.600028
 30
0.0
 70
   192
  0
VERTEX
  5
E1
100
AcDbEntity
  8
___C___1
  6
CONTINUOUS
 62
    18
100
AcDbFaceRecord
 10
0.0
 20
0.0
 30
0.0
 70
   128
 71
     6
 72
    10
 73
     5
  0
VERTEX
  5
E2
100
AcDbEntity
  8
___C___1
  6
CONTINUOUS
 62
    18
100
AcDbFaceRecord
 10
0.0
 20
0.0
 30
0.0
 70
   128
 71
     7
 72
     8
 73
     9
 74
    10
  0
VERTEX
  5
E3
100
AcDbEntity
  8
___C___1
  6
CONTINUOUS
 62
    18
100
AcDbFaceRecord
 10
0.0
 20
0.0
 30
0.0
 70
   128
 71
    14
 72
    16
 73
    15
  0
VERTEX
  5
E4
100
AcDbEntity
  8
___C___1
  6
CONTINUOUS
 62
    18
100
AcDbFaceRecord
 10
0.0
 20
0.0
 30
0.0
 70
   128
 71
    17
 72
    16
 73
    21
  0
VERTEX
  5
E5
100
AcDbEntity
  8
___C___1
  6
CONTINUOUS
 62
    18
100
AcDbFaceRecord
 10
0.0
 20
0.0
 30
0.0
 70
   128
 71
    18
 72
    17
 73
    21
  0
VERTEX
  5
E6
100
AcDbEntity
  8
___C___1
  6
CONTINUOUS
 62
    18
100
AcDbFaceRecord
 10
0.0
 20
0.0
 30
0.0
 70
   128
 71
    19
 72
    18
 73
    21
 74
    20
  0
VERTEX
  5
E7
100
AcDbEntity
  8
___C___1
  6
CONTINUOUS
 62
    18
100
AcDbFaceRecord
 10
0.0
 20
0.0
 30
0.0
 70
   128
 71
     6
 72
     7
 73
    10
  0
VERTEX
  5
E8
100
AcDbEntity
  8
___C___1
  6
CONTINUOUS
 62
    18
100
AcDbFaceRecord
 10
0.0
 20
0.0
 30
0.0
 70
   128
 71
     3
 72
    11
 73
     2
  0
VERTEX
  5
E9
100
AcDbEntity
  8
___C___1
  6
CONTINUOUS
 62
    18
100
AcDbFaceRecord
 10
0.0
 20
0.0
 30
0.0
 70
   128
 71
     4
 72
    11
 73
     3
  0
VERTEX
  5
EA
100
AcDbEntity
  8
___C___1
  6
CONTINUOUS
 62
    18
100
AcDbFaceRecord
 10
0.0
 20
0.0
 30
0.0
 70
   128
 71
     5
 72
    11
 73
     4
  0
VERTEX
  5
EB
100
AcDbEntity
  8
___C___1
  6
CONTINUOUS
 62
    18
100
AcDbFaceRecord
 10
0.0
 20
0.0
 30
0.0
 70
   128
 71
     5
 72
    10
 73
    11
  0
VERTEX
  5
EC
100
AcDbEntity
  8
___C___1
  6
CONTINUOUS
 62
    18
100
AcDbFaceRecord
 10
0.0
 20
0.0
 30
0.0
 70
   128
 71
     1
 72
     2
 73
    11
  0
VERTEX
  5
ED
100
AcDbEntity
  8
___C___1
  6
CONTINUOUS
 62
    18
100
AcDbFaceRecord
 10
0.0
 20
0.0
 30
0.0
 70
   128
 71
    14
 72
    22
 73
    16
  0
VERTEX
  5
EE
100
AcDbEntity
  8
___C___1
  6
CONTINUOUS
 62
    18
100
AcDbFaceRecord
 10
0.0
 20
0.0
 30
0.0
 70
   128
 71
    13
 72
    22
 73
    14
  0
VERTEX
  5
EF
100
AcDbEntity
  8
___C___1
  6
CONTINUOUS
 62
    18
100
AcDbFaceRecord
 10
0.0
 20
0.0
 30
0.0
 70
   128
 71
    13
 72
    12
 73
    22
  0
VERTEX
  5
F0
100
AcDbEntity
  8
___C___1
  6
CONTINUOUS
 62
    18
100
AcDbFaceRecord
 10
0.0
 20
0.0
 30
0.0
 70
   128
 71
    21
 72
    16
 73
    22
  0
SEQEND
  5
F1
100
AcDbEntity
  8
___C___1
  6
CONTINUOUS
 62
    18
  0
POLYLINE
  5
F2
100
AcDbEntity
  8
___C___1
  6
CONTINUOUS
 62
    18
100
AcDbPolyFaceMesh
 66
     1
 10
0.0
 20
0.0
 30
0.0
 70
    64
  0
VERTEX
  5
F3
100
AcDbEntity
  8
0
100
AcDbVertex
100
AcDbPolyFaceMeshVertex
 10
13.428131
 20
13.350028
 30
0.0
 70
   192
  0
VERTEX
  5
F4
100
AcDbEntity
  8
0
100
AcDbVertex
100
AcDbPolyFaceMeshVertex
 10
13.500712
 20
13.350028
 30
0.0
 70
   192
  0
VERTEX
  5
F5
100
AcDbEntity
  8
0
100
AcDbVertex
100
AcDbPolyFaceMeshVertex
 10
13.500712
 20
13.975028
 30
0.0
 70
   192
  0
VERTEX
  5
F6
100
AcDbEntity
  8
0
100
AcDbVertex
100
AcDbPolyFaceMeshVertex
 10
13.462844
 20
13.975028
 30
0.0
 70
   192
  0
VERTEX
  5
F7
100
AcDbEntity
  8
0
100
AcDbVertex
100
AcDbPolyFaceMeshVertex
 10
13.447657
 20
13.935765
 30
0.0
 70
   192
  0
VERTEX
  5
F8
100
AcDbEntity
  8
0
100
AcDbVertex
100
AcDbPolyFaceMeshVertex
 10
13.421031
 20
13.907721
 30
0.0
 70
   192
  0
VERTEX
  5
F9
100
AcDbEntity
  8
0
100
AcDbVertex
100
AcDbPolyFaceMeshVertex
 10
13.382966
 20
13.890894
 30
0.0
 70
   192
  0
VERTEX
  5
FA
100
AcDbEntity
  8
0
100
AcDbVertex
100
AcDbPolyFaceMeshVertex
 10
13.333461
 20
13.885285
 30
0.0
 70
   192
  0
VERTEX
  5
FB
100
AcDbEntity
  8
0
100
AcDbVertex
100
AcDbPolyFaceMeshVertex
 10
13.333461
 20
13.846823
 30
0.0
 70
   192
  0
VERTEX
  5
FC
100
AcDbEntity
  8
0
100
AcDbVertex
100
AcDbPolyFaceMeshVertex
 10
13.428131
 20
13.846823
 30
0.0
 70
   192
  0
VERTEX
  5
FD
100
AcDbEntity
  8
0
100
AcDbVertex
100
AcDbPolyFaceMeshVertex
 10
13.428131
 20
13.600028
 30
0.0
 70
   192
  0
VERTEX
  5
FE
100
AcDbEntity
  8
0
100
AcDbVertex
100
AcDbPolyFaceMeshVertex
 10
13.428131
 20
13.350028
 30
0.0
 70
   192
  0
VERTEX
  5
FF
100
AcDbEntity
  8
0
100
AcDbVertex
100
AcDbPolyFaceMeshVertex
 10
13.500712
 20
13.350028
 30
0.0
 70
   192
  0
VERTEX
  5
100
100
AcDbEntity
  8
0
100
AcDbVertex
100
AcDbPolyFaceMeshVertex
 10
13.500712
 20
13.975028
 30
0.0
 70
   192
  0
VERTEX
  5
101
100
AcDbEntity
  8
0
100
AcDbVertex
100
AcDbPolyFaceMeshVertex
 10
13.462844
 20
13.975028
 30
0.0
 70
   192
  0
VERTEX
  5
102
100
AcDbEntity
  8
0
100
AcDbVertex
100
AcDbPolyFaceMeshVertex
 10
13.447657
 20
13.935765
 30
0.0
 70
   192
  0
VERTEX
  5
103
100
AcDbEntity
  8
0
100
AcDbVertex
100
AcDbPolyFaceMeshVertex
 10
13.421031
 20
13.907721
 30
0.0
 70
   192
  0
VERTEX
  5
104
100
AcDbEntity
  8
0
100
AcDbVertex
100
AcDbPolyFaceMeshVertex
 10
13.382966
 20
13.890894
 30
0.0
 70
   192
  0
VERTEX
  5
105
100
AcDbEntity
  8
0
100
AcDbVertex
100
AcDbPolyFaceMeshVertex
 10
13.333461
 20
13.885285
 30
0.0
 70
   192
  0
VERTEX
  5
106
100
AcDbEntity
  8
0
100
AcDbVertex
100
AcDbPolyFaceMeshVertex
 10
13.333461
 20
13.846823
 30
0.0
 70
   192
  0
VERTEX
  5
107
100
AcDbEntity
  8
0
100
AcDbVertex
100
AcDbPolyFaceMeshVertex
 10
13.428131
 20
13.846823
 30
0.0
 70
   192
  0
VERTEX
  5
108
100
AcDbEntity
  8
0
100
AcDbVertex
100
AcDbPolyFaceMeshVertex
 10
13.428131
 20
13.600028
 30
0.0
 70
   192
  0
VERTEX
  5
109
100
AcDbEntity
  8
___C___1
  6
CONTINUOUS
 62
    18
100
AcDbFaceRecord
 10
0.0
 20
0.0
 30
0.0
 70
   128
 71
     6
 72
    10
 73
     5
  0
VERTEX
  5
10A
100
AcDbEntity
  8
___C___1
  6
CONTINUOUS
 62
    18
100
AcDbFaceRecord
 10
0.0
 20
0.0
 30
0.0
 70
   128
 71
     7
 72
     8
 73
     9
 74
    10
  0
VERTEX
  5
10B
100
AcDbEntity
  8
___C___1
  6
CONTINUOUS
 62
    18
100
AcDbFaceRecord
 10
0.0
 20
0.0
 30
0.0
 70
   128
 71
    14
 72
    16
 73
    15
  0
VERTEX
  5
10C
100
AcDbEntity
  8
___C___1
  6
CONTINUOUS
 62
    18
100
AcDbFaceRecord
 10
0.0
 20
0.0
 30
0.0
 70
   128
 71
    17
 72
    16
 73
    21
  0
VERTEX
  5
10D
100
AcDbEntity
  8
___C___1
  6
CONTINUOUS
 62
    18
100
AcDbFaceRecord
 10
0.0
 20
0.0
 30
0.0
 70
   128
 71
    18
 72
    17
 73
    21
  0
VERTEX
  5
10E
100
AcDbEntity
  8
___C___1
  6
CONTINUOUS
 62
    18
100
AcDbFaceRecord
 10
0.0
 20
0.0
 30
0.0
 70
   128
 71
    19
 72
    18
 73
    21
 74
    20
  0
VERTEX
  5
10F
100
AcDbEntity
  8
___C___1
  6
CONTINUOUS
 62
    18
100
AcDbFaceRecord
 10
0.0
 20
0.0
 30
0.0
 70
   128
 71
     6
 72
     7
 73
    10
  0
VERTEX
  5
110
100
AcDbEntity
  8
___C___1
  6
CONTINUOUS
 62
    18
100
AcDbFaceRecord
 10
0.0
 20
0.0
 30
0.0
 70
   128
 71
     3
 72
    11
 73
     2
  0
VERTEX
  5
111
100
AcDbEntity
  8
___C___1
  6
CONTINUOUS
 62
    18
100
AcDbFaceRecord
 10
0.0
 20
0.0
 30
0.0
 70
   128
 71
     4
 72
    11
 73
     3
  0
VERTEX
  5
112
100
AcDbEntity
  8
___C___1
  6
CONTINUOUS
 62
    18
100
AcDbFaceRecord
 10
0.0
 20
0.0
 30
0.0
 70
   128
 71
     5
 72
    11
 73
     4
  0
VERTEX
  5
113
100
AcDbEntity
  8
___C___1
  6
CONTINUOUS
 62
    18
100
AcDbFaceRecord
 10
0.0
 20
0.0
 30
0.0
 70
   128
 71
     5
 72
    10
 73
    11
  0
VERTEX
  5
114
100
AcDbEntity
  8
___C___1
  6
CONTINUOUS
 62
    18
100
AcDbFaceRecord
 10
0.0
 20
0.0
 30
0.0
 70
   128
 71
     1
 72
     2
 73
    11
  0
VERTEX
  5
115
100
AcDbEntity
  8
___C___1
  6
CONTINUOUS
 62
    18
100
AcDbFaceRecord
 10
0.0
 20
0.0
 30
0.0
 70
   128
 71
    14
 72
    22
 73
    16
  0
VERTEX
  5
116
100
AcDbEntity
  8
___C___1
  6
CONTINUOUS
 62
    18
100
AcDbFaceRecord
 10
0.0
 20
0.0
 30
0.0
 70
   128
 71
    13
 72
    22
 73
    14
  0
VERTEX
  5
117
100
AcDbEntity
  8
___C___1
  6
CONTINUOUS
 62
    18
100
AcDbFaceRecord
 10
0.0
 20
0.0
 30
0.0
 70
   128
 71
    13
 72
    12
 73
    22
  0
VERTEX
  5
118
100
AcDbEntity
  8
___C___1
  6
CONTINUOUS
 62
    18
100
AcDbFaceRecord
 10
0.0
 20
0.0
 30
0.0
 70
   128
 71
    21
 72
    16
 73
    22
  0
SEQEND
  5
119
100
AcDbEntity
  8
___C___1
  6
CONTINUOUS
 62
    18
  0
POLYLINE
  5
11A
100
AcDbEntity
  8
___C_____1
  6
CONTINUOUS
 62
    18
100
AcDb3dPolyline
 66
     1
 10
0.0
 20
0.0
 30
0.0
 70
     8
  0
VERTEX
  5
11B
100
AcDbEntity
  8
___C_____1
  6
CONTINUOUS
100
AcDbVertex
100
AcDb3dPolylineVertex
 10
11.243713
 20
18.948717
 30
0.0
 70
    32
  0
VERTEX
  5
11C
100
AcDbEntity
  8
___C_____1
  6
CONTINUOUS
100
AcDbVertex
100
AcDb3dPolylineVertex
 10
9.360688
 20
19.185343
 30
0.0
 70
    32
  0
VERTEX
  5
11D
100
AcDbEntity
  8
___C_____1
  6
CONTINUOUS
100
AcDbVertex
100
AcDb3dPolylineVertex
 10
9.273194
 20
19.161146
 30
0.0
 70
    32
  0
VERTEX
  5
11E
100
AcDbEntity
  8
___C_____1
  6
CONTINUOUS
100
AcDbVertex
100
AcDb3dPolylineVertex
 10
9.203124
 20
19.095555
 30
0.0
 70
    32
  0
VERTEX
  5
11F
100
AcDbEntity
  8
___C_____1
  6
CONTINUOUS
100
AcDbVertex
100
AcDb3dPolylineVertex
 10
9.158648
 20
18.999069
 30
0.0
 70
    32
  0
SEQEND
  5
120
100
AcDbEntity
  8
___C_____1
  6
CONTINUOUS
 62
    18
  0
POLYLINE
  5
121
100
AcDbEntity
  8
___C_____1
  6
CONTINUOUS
 62
    18
100
AcDb3dPolyline
 66
     1
 10
0.0
 20
0.0
 30
0.0
 70
     8
  0
VERTEX
  5
122
100
AcDbEntity
  8
___C_____1
  6
CONTINUOUS
100
AcDbVertex
100
AcDb3dPolylineVertex
 10
10.955218
 20
14.725919
 30
0.0
 70
    32
  0
VERTEX
  5
123
100
AcDbEntity
  8
___C_____1
  6
CONTINUOUS
100
AcDbVertex
100
AcDb3dPolylineVertex
 10
11.243713
 20
14.689675
 30
0.0
 70
    32
  0
SEQEND
  5
124
100
AcDbEntity
  8
___C_____1
  6
CONTINUOUS
 62
    18
  0
POLYLINE
  5
125
100
AcDbEntity
  8
___C_____1
  6
CONTINUOUS
 62
    18
100
AcDb3dPolyline
 66
     1
 10
0.0
 20
0.0
 30
0.0
 70
     8
  0
VERTEX
  5
126
100
AcDbEntity
  8
___C_____1
  6
CONTINUOUS
100
AcDbVertex
100
AcDb3dPolylineVertex
 10
11.243713
 20
14.767812
 30
0.0
 70
    32
  0
VERTEX
  5
127
100
AcDbEntity
  8
___C_____1
  6
CONTINUOUS
100
AcDbVertex
100
AcDb3dPolylineVertex
 10
10.802568
 20
14.703765
 30
0.0
 70
    32
  0
VERTEX
  5
128
100
AcDbEntity
  8
___C_____1
  6
CONTINUOUS
100
AcDbVertex
100
AcDb3dPolylineVertex
 10
10.772078
 20
14.699982
 30
0.0
 70
    32
  0
VERTEX
  5
129
100
AcDbEntity
  8
___C_____1
  6
CONTINUOUS
100
AcDbVertex
100
AcDb3dPolylineVertex
 10
10.697882
 20
14.695733
 30
0.0
 70
    32
  0
VERTEX
  5
12A
100
AcDbEntity
  8
___C_____1
  6
CONTINUOUS
100
AcDbVertex
100
AcDb3dPolylineVertex
 10
10.605886
 20
14.701666
 30
0.0
 70
    32
  0
VERTEX
  5
12B
100
AcDbEntity
  8
___C_____1
  6
CONTINUOUS
100
AcDbVertex
100
AcDb3dPolylineVertex
 10
8.902972
 20
14.935053
 30
0.0
 70
    32
  0
VERTEX
  5
12C
100
AcDbEntity
  8
___C_____1
  6
CONTINUOUS
100
AcDbVertex
100
AcDb3dPolylineVertex
 10
8.833408
 20
14.952143
 30
0.0
 70
    32
  0
VERTEX
  5
12D
100
AcDbEntity
  8
___C_____1
  6
CONTINUOUS
100
AcDbVertex
100
AcDb3dPolylineVertex
 10
8.77738
 20
14.987038
 30
0.0
 70
    32
  0
VERTEX
  5
12E
100
AcDbEntity
  8
___C_____1
  6
CONTINUOUS
100
AcDbVertex
100
AcDb3dPolylineVertex
 10
8.734023
 20
15.039716
 30
0.0
 70
    32
  0
SEQEND
  5
12F
100
AcDbEntity
  8
___C_____1
  6
CONTINUOUS
 62
    18
  0
POLYLINE
  5
130
100
AcDbEntity
  8
___C_____1
  6
CONTINUOUS
 62
    18
100
AcDb3dPolyline
 66
     1
 10
0.0
 20
0.0
 30
0.0
 70
     8
  0
VERTEX
  5
131
100
AcDbEntity
  8
___C_____1
  6
CONTINUOUS
100
AcDbVertex
100
AcDb3dPolylineVertex
 10
8.731232
 20
18.811087
 30
0.0
 70
    32
  0
VERTEX
  5
132
100
AcDbEntity
  8
___C_____1
  6
CONTINUOUS
100
AcDbVertex
100
AcDb3dPolylineVertex
 10
8.76204
 20
18.850908
 30
0.0
 70
    32
  0
VERTEX
  5
133
100
AcDbEntity
  8
___C_____1
  6
CONTINUOUS
100
AcDbVertex
100
AcDb3dPolylineVertex
 10
8.799902
 20
18.88257
 30
0.0
 70
    32
  0
VERTEX
  5
134
100
AcDbEntity
  8
___C_____1
  6
CONTINUOUS
100
AcDbVertex
100
AcDb3dPolylineVertex
 10
8.844111
 20
18.905843
 30
0.0
 70
    32
  0
VERTEX
  5
135
100
AcDbEntity
  8
___C_____1
  6
CONTINUOUS
100
AcDbVertex
100
AcDb3dPolylineVertex
 10
9.443661
 20
19.083524
 30
0.0
 70
    32
  0
VERTEX
  5
136
100
AcDbEntity
  8
___C_____1
  6
CONTINUOUS
100
AcDbVertex
100
AcDb3dPolylineVertex
 10
9.454718
 20
19.085393
 30
0.0
 70
    32
  0
VERTEX
  5
137
100
AcDbEntity
  8
___C_____1
  6
CONTINUOUS
100
AcDbVertex
100
AcDb3dPolylineVertex
 10
9.465911
 20
19.086554
 30
0.0
 70
    32
  0
VERTEX
  5
138
100
AcDbEntity
  8
___C_____1
  6
CONTINUOUS
100
AcDbVertex
100
AcDb3dPolylineVertex
 10
9.477253
 20
19.086953
 30
0.0
 70
    32
  0
VERTEX
  5
139
100
AcDbEntity
  8
___C_____1
  6
CONTINUOUS
100
AcDbVertex
100
AcDb3dPolylineVertex
 10
11.243713
 20
18.839715
 30
0.0
 70
    32
  0
SEQEND
  5
13A
100
AcDbEntity
  8
___C_____1
  6
CONTINUOUS
 62
    18
  0
POLYLINE
  5
13B
100
AcDbEntity
  8
___C_____1
  6
CONTINUOUS
 62
    18
100
AcDb3dPolyline
 66
     1
 10
0.0
 20
0.0
 30
0.0
 70
     8
  0
VERTEX
  5
13C
100
AcDbEntity
  8
___C_____1
  6
CONTINUOUS
100
AcDbVertex
100
AcDb3dPolylineVertex
 10
11.243713
 20
19.013967
 30
0.0
 70
    32
  0
VERTEX
  5
13D
100
AcDbEntity
  8
___C_____1
  6
CONTINUOUS
100
AcDbVertex
100
AcDb3dPolylineVertex
 10
9.494221
 20
19.233867
 30
0.0
 70
    32
  0
VERTEX
  5
13E
100
AcDbEntity
  8
___C_____1
  6
CONTINUOUS
100
AcDbVertex
100
AcDb3dPolylineVertex
 10
9.424546
 20
19.222051
 30
0.0
 70
    32
  0
VERTEX
  5
13F
100
AcDbEntity
  8
___C_____1
  6
CONTINUOUS
100
AcDbVertex
100
AcDb3dPolylineVertex
 10
9.336265
 20
19.194112
 30
0.0
 70
    32
  0
VERTEX
  5
140
100
AcDbEntity
  8
___C_____1
  6
CONTINUOUS
100
AcDbVertex
100
AcDb3dPolylineVertex
 10
9.273802
 20
19.161315
 30
0.0
 70
    32
  0
SEQEND
  5
141
100
AcDbEntity
  8
___C_____1
  6
CONTINUOUS
 62
    18
  0
POLYLINE
  5
142
100
AcDbEntity
  8
___C_____1
  6
CONTINUOUS
 62
    18
100
AcDb3dPolyline
 66
     1
 10
0.0
 20
0.0
 30
0.0
 70
     8
  0
VERTEX
  5
143
100
AcDbEntity
  8
___C_____1
  6
CONTINUOUS
100
AcDbVertex
100
AcDb3dPolylineVertex
 10
9.764231
 20
14.816954
 30
0.0
 70
    32
  0
VERTEX
  5
144
100
AcDbEntity
  8
___C_____1
  6
CONTINUOUS
100
AcDbVertex
100
AcDb3dPolylineVertex
 10
9.764231
 20
14.460852
 30
0.0
 70
    32
  0
VERTEX
  5
145
100
AcDbEntity
  8
___C_____1
  6
CONTINUOUS
100
AcDbVertex
100
AcDb3dPolylineVertex
 10
10.802568
 20
14.296108
 30
0.0
 70
    32
  0
VERTEX
  5
146
100
AcDbEntity
  8
___C_____1
  6
CONTINUOUS
100
AcDbVertex
100
AcDb3dPolylineVertex
 10
10.802568
 20
14.703765
 30
0.0
 70
    32
  0
SEQEND
  5
147
100
AcDbEntity
  8
___C_____1
  6
CONTINUOUS
 62
    18
  0
POLYLINE
  5
148
100
AcDbEntity
  8
___C_____1
  6
CONTINUOUS
 62
    18
100
AcDb3dPolyline
 66
     1
 10
0.0
 20
0.0
 30
0.0
 70
     8
  0
VERTEX
  5
149
100
AcDbEntity
  8
___C_____1
  6
CONTINUOUS
100
AcDbVertex
100
AcDb3dPolylineVertex
 10
10.90747
 20
14.718994
 30
0.0
 70
    32
  0
VERTEX
  5
14A
100
AcDbEntity
  8
___C_____1
  6
CONTINUOUS
100
AcDbVertex
100
AcDb3dPolylineVertex
 10
10.90747
 20
14.335242
 30
0.0
 70
    32
  0
VERTEX
  5
14B
100
AcDbEntity
  8
___C_____1
  6
CONTINUOUS
100
AcDbVertex
100
AcDb3dPolylineVertex
 10
10.802568
 20
14.296108
 30
0.0
 70
    32
  0
SEQEND
  5
14C
100
AcDbEntity
  8
___C_____1
  6
CONTINUOUS
 62
    18
  0
POLYLINE
  5
14D
100
AcDbEntity
  8
___C_____1
  6
CONTINUOUS
 62
    18
100
AcDb3dPolyline
 66
     1
 10
0.0
 20
0.0
 30
0.0
 70
     8
  0
VERTEX
  5
14E
100
AcDbEntity
  8
___C_____1
  6
CONTINUOUS
100
AcDbVertex
100
AcDb3dPolylineVertex
 10
9.744077
 20
14.189103
 30
0.0
 70
    32
  0
VERTEX
  5
14F
100
AcDbEntity
  8
___C_____1
  6
CONTINUOUS
100
AcDbVertex
100
AcDb3dPolylineVertex
 10
9.744077
 20
13.467421
 30
0.0
 70
    32
  0
SEQEND
  5
150
100
AcDbEntity
  8
___C_____1
  6
CONTINUOUS
 62
    18
  0
POLYLINE
  5
151
100
AcDbEntity
  8
___C_____1
  6
CONTINUOUS
 62
    18
100
AcDb3dPolyline
 66
     1
 10
0.0
 20
0.0
 30
0.0
 70
     8
  0
VERTEX
  5
152
100
AcDbEntity
  8
___C_____1
  6
CONTINUOUS
100
AcDbVertex
100
AcDb3dPolylineVertex
 10
9.582931
 20
14.193097
 30
0.0
 70
    32
  0
VERTEX
  5
153
100
AcDbEntity
  8
___C_____1
  6
CONTINUOUS
100
AcDbVertex
100
AcDb3dPolylineVertex
 10
9.582931
 20
13.467421
 30
0.0
 70
    32
  0
SEQEND
  5
154
100
AcDbEntity
  8
___C_____1
  6
CONTINUOUS
 62
    18
  0
POLYLINE
  5
155
100
AcDbEntity
  8
___C_____1
  6
CONTINUOUS
 62
    18
100
AcDb3dPolyline
 66
     1
 10
0.0
 20
0.0
 30
0.0
 70
     8
  0
VERTEX
  5
156
100
AcDbEntity
  8
___C_____1
  6
CONTINUOUS
100
AcDbVertex
100
AcDb3dPolylineVertex
 10
11.012061
 20
19.043131
 30
0.0
 70
    32
  0
VERTEX
  5
157
100
AcDbEntity
  8
___C_____1
  6
CONTINUOUS
100
AcDbVertex
100
AcDb3dPolylineVertex
 10
10.651222
 20
19.758989
 30
0.0
 70
    32
  0
VERTEX
  5
158
100
AcDbEntity
  8
___C_____1
  6
CONTINUOUS
100
AcDbVertex
100
AcDb3dPolylineVertex
 10
10.323646
 20
19.794387
 30
0.0
 70
    32
  0
VERTEX
  5
159
100
AcDbEntity
  8
___C_____1
  6
CONTINUOUS
100
AcDbVertex
100
AcDb3dPolylineVertex
 10
9.974896
 20
19.173408
 30
0.0
 70
    32
  0
SEQEND
  5
15A
100
AcDbEntity
  8
___C_____1
  6
CONTINUOUS
 62
    18
  0
POLYLINE
  5
15B
100
AcDbEntity
  8
___C_____1
  6
CONTINUOUS
 62
    18
100
AcDbPolyFaceMesh
 66
     1
 10
0.0
 20
0.0
 30
0.0
 70
    64
  0
VERTEX
  5
15C
100
AcDbEntity
  8
0
100
AcDbVertex
100
AcDbPolyFaceMeshVertex
 10
10.42283
 20
19.504706
 30
0.0
 70
   192
  0
VERTEX
  5
15D
100
AcDbEntity
  8
0
100
AcDbVertex
100
AcDbPolyFaceMeshVertex
 10
10.42283
 20
19.633915
 30
0.0
 70
   192
  0
VERTEX
  5
15E
100
AcDbEntity
  8
0
100
AcDbVertex
100
AcDbPolyFaceMeshVertex
 10
10.538326
 20
19.618946
 30
0.0
 70
   192
  0
VERTEX
  5
15F
100
AcDbEntity
  8
0
100
AcDbVertex
100
AcDbPolyFaceMeshVertex
 10
10.538326
 20
19.489738
 30
0.0
 70
   192
  0
VERTEX
  5
160
100
AcDbEntity
  8
0
100
AcDbVertex
100
AcDbPolyFaceMeshVertex
 10
10.561874
 20
19.457799
 30
0.0
 70
   192
  0
VERTEX
  5
161
100
AcDbEntity
  8
0
100
AcDbVertex
100
AcDbPolyFaceMeshVertex
 10
10.577343
 20
19.418522
 30
0.0
 70
   192
  0
VERTEX
  5
162
100
AcDbEntity
  8
0
100
AcDbVertex
100
AcDbPolyFaceMeshVertex
 10
10.582906
 20
19.374548
 30
0.0
 70
   192
  0
VERTEX
  5
163
100
AcDbEntity
  8
0
100
AcDbVertex
100
AcDbPolyFaceMeshVertex
 10
10.568939
 20
19.309432
 30
0.0
 70
   192
  0
VERTEX
  5
164
100
AcDbEntity
  8
0
100
AcDbVertex
100
AcDbPolyFaceMeshVertex
 10
10.532239
 20
19.266626
 30
0.0
 70
   192
  0
VERTEX
  5
165
100
AcDbEntity
  8
0
100
AcDbVertex
100
AcDbPolyFaceMeshVertex
 10
10.480604
 20
19.255228
 30
0.0
 70
   192
  0
VERTEX
  5
166
100
AcDbEntity
  8
0
100
AcDbVertex
100
AcDbPolyFaceMeshVertex
 10
10.428939
 20
19.27999
 30
0.0
 70
   192
  0
VERTEX
  5
167
100
AcDbEntity
  8
0
100
AcDbVertex
100
AcDbPolyFaceMeshVertex
 10
10.392232
 20
19.332304
 30
0.0
 70
   192
  0
VERTEX
  5
168
100
AcDbEntity
  8
0
100
AcDbVertex
100
AcDbPolyFaceMeshVertex
 10
10.378267
 20
19.401024
 30
0.0
 70
   192
  0
VERTEX
  5
169
100
AcDbEntity
  8
0
100
AcDbVertex
100
AcDbPolyFaceMeshVertex
 10
10.383841
 20
19.443581
 30
0.0
 70
   192
  0
VERTEX
  5
16A
100
AcDbEntity
  8
0
100
AcDbVertex
100
AcDbPolyFaceMeshVertex
 10
10.399318
 20
19.478848
 30
0.0
 70
   192
  0
VERTEX
  5
16B
100
AcDbEntity
  8
___C_____1
  6
CONTINUOUS
 62
    18
100
AcDbFaceRecord
 10
0.0
 20
0.0
 30
0.0
 70
   128
 71
     1
 72
    15
 73
    14
  0
VERTEX
  5
16C
100
AcDbEntity
  8
___C_____1
  6
CONTINUOUS
 62
    18
100
AcDbFaceRecord
 10
0.0
 20
0.0
 30
0.0
 70
   128
 71
     2
 72
     1
 73
     4
 74
     3
  0
VERTEX
  5
16D
100
AcDbEntity
  8
___C_____1
  6
CONTINUOUS
 62
    18
100
AcDbFaceRecord
 10
0.0
 20
0.0
 30
0.0
 70
   128
 71
     5
 72
     4
 73
     6
  0
VERTEX
  5
16E
100
AcDbEntity
  8
___C_____1
  6
CONTINUOUS
 62
    18
100
AcDbFaceRecord
 10
0.0
 20
0.0
 30
0.0
 70
   128
 71
     6
 72
     4
 73
     1
 74
     9
  0
VERTEX
  5
16F
100
AcDbEntity
  8
___C_____1
  6
CONTINUOUS
 62
    18
100
AcDbFaceRecord
 10
0.0
 20
0.0
 30
0.0
 70
   128
 71
     7
 72
     6
 73
     9
 74
     8
  0
VERTEX
  5
170
100
AcDbEntity
  8
___C_____1
  6
CONTINUOUS
 62
    18
100
AcDbFaceRecord
 10
0.0
 20
0.0
 30
0.0
 70
   128
 71
     9
 72
     1
 73
    12
  0
VERTEX
  5
171
100
AcDbEntity
  8
___C_____1
  6
CONTINUOUS
 62
    18
100
AcDbFaceRecord
 10
0.0
 20
0.0
 30
0.0
 70
   128
 71
    10
 72
     9
 73
    12
 74
    11
  0
VERTEX
  5
172
100
AcDbEntity
  8
___C_____1
  6
CONTINUOUS
 62
    18
100
AcDbFaceRecord
 10
0.0
 20
0.0
 30
0.0
 70
   128
 71
    13
 72
    12
 73
     1
 74
    14
  0
SEQEND
  5
173
100
AcDbEntity
  8
___C_____1
  6
CONTINUOUS
 62
    18
  0
POLYLINE
  5
174
100
AcDbEntity
  8
___C_____1
  6
CONTINUOUS
 62
    18
100
AcDb3dPolyline
 66
     1
 10
0.0
 20
0.0
 30
0.0
 70
     8
  0
VERTEX
  5
175
100
AcDbEntity
  8
___C_____1
  6
CONTINUOUS
100
AcDbVertex
100
AcDb3dPolylineVertex
 10
10.491128
 20
19.25442
 30
0.0
 70
    32
  0
VERTEX
  5
176
100
AcDbEntity
  8
___C_____1
  6
CONTINUOUS
100
AcDbVertex
100
AcDb3dPolylineVertex
 10
10.447703
 20
19.284108
 30
0.0
 70
    32
  0
VERTEX
  5
177
100
AcDbEntity
  8
___C_____1
  6
CONTINUOUS
100
AcDbVertex
100
AcDb3dPolylineVertex
 10
10.41753
 20
19.333997
 30
0.0
 70
    32
  0
VERTEX
  5
178
100
AcDbEntity
  8
___C_____1
  6
CONTINUOUS
100
AcDbVertex
100
AcDb3dPolylineVertex
 10
10.406224
 20
19.396117
 30
0.0
 70
    32
  0
VERTEX
  5
179
100
AcDbEntity
  8
___C_____1
  6
CONTINUOUS
100
AcDbVertex
100
AcDb3dPolylineVertex
 10
10.411801
 20
19.438654
 30
0.0
 70
    32
  0
VERTEX
  5
17A
100
AcDbEntity
  8
___C_____1
  6
CONTINUOUS
100
AcDbVertex
100
AcDb3dPolylineVertex
 10
10.427273
 20
19.473919
 30
0.0
 70
    32
  0
VERTEX
  5
17B
100
AcDbEntity
  8
___C_____1
  6
CONTINUOUS
100
AcDbVertex
100
AcDb3dPolylineVertex
 10
10.450752
 20
19.49976
 30
0.0
 70
    32
  0
VERTEX
  5
17C
100
AcDbEntity
  8
___C_____1
  6
CONTINUOUS
100
AcDbVertex
100
AcDb3dPolylineVertex
 10
10.450752
 20
19.628986
 30
0.0
 70
    32
  0
SEQEND
  5
17D
100
AcDbEntity
  8
___C_____1
  6
CONTINUOUS
 62
    18
  0
POLYLINE
  5
17E
100
AcDbEntity
  8
___C_____1
  6
CONTINUOUS
 62
    18
100
AcDbPolyFaceMesh
 66
     1
 10
0.0
 20
0.0
 30
0.0
 70
    64
  0
VERTEX
  5
17F
100
AcDbEntity
  8
0
100
AcDbVertex
100
AcDbPolyFaceMeshVertex
 10
8.649257
 20
15.148495
 30
0.0
 70
   192
  0
VERTEX
  5
180
100
AcDbEntity
  8
0
100
AcDbVertex
100
AcDbPolyFaceMeshVertex
 10
8.664566
 20
15.091873
 30
0.0
 70
   192
  0
VERTEX
  5
181
100
AcDbEntity
  8
0
100
AcDbVertex
100
AcDbPolyFaceMeshVertex
 10
8.704807
 20
15.051612
 30
0.0
 70
   192
  0
VERTEX
  5
182
100
AcDbEntity
  8
0
100
AcDbVertex
100
AcDbPolyFaceMeshVertex
 10
8.761448
 20
15.036287
 30
0.0
 70
   192
  0
VERTEX
  5
183
100
AcDbEntity
  8
0
100
AcDbVertex
100
AcDbPolyFaceMeshVertex
 10
10.618184
 20
14.795269
 30
0.0
 70
   192
  0
VERTEX
  5
184
100
AcDbEntity
  8
0
100
AcDbVertex
100
AcDbPolyFaceMeshVertex
 10
10.674852
 20
14.810586
 30
0.0
 70
   192
  0
VERTEX
  5
185
100
AcDbEntity
  8
0
100
AcDbVertex
100
AcDbPolyFaceMeshVertex
 10
10.71509
 20
14.850834
 30
0.0
 70
   192
  0
VERTEX
  5
186
100
AcDbEntity
  8
0
100
AcDbVertex
100
AcDbPolyFaceMeshVertex
 10
10.730393
 20
14.907459
 30
0.0
 70
   192
  0
VERTEX
  5
187
100
AcDbEntity
  8
0
100
AcDbVertex
100
AcDbPolyFaceMeshVertex
 10
10.730393
 20
18.409526
 30
0.0
 70
   192
  0
VERTEX
  5
188
100
AcDbEntity
  8
0
100
AcDbVertex
100
AcDbPolyFaceMeshVertex
 10
10.71509
 20
18.466113
 30
0.0
 70
   192
  0
VERTEX
  5
189
100
AcDbEntity
  8
0
100
AcDbVertex
100
AcDbPolyFaceMeshVertex
 10
10.674852
 20
18.506368
 30
0.0
 70
   192
  0
VERTEX
  5
18A
100
AcDbEntity
  8
0
100
AcDbVertex
100
AcDbPolyFaceMeshVertex
 10
10.618184
 20
18.521696
 30
0.0
 70
   192
  0
VERTEX
  5
18B
100
AcDbEntity
  8
0
100
AcDbVertex
100
AcDbPolyFaceMeshVertex
 10
8.761448
 20
18.815289
 30
0.0
 70
   192
  0
VERTEX
  5
18C
100
AcDbEntity
  8
0
100
AcDbVertex
100
AcDbPolyFaceMeshVertex
 10
8.704807
 20
18.799972
 30
0.0
 70
   192
  0
VERTEX
  5
18D
100
AcDbEntity
  8
0
100
AcDbVertex
100
AcDbPolyFaceMeshVertex
 10
8.664566
 20
18.759728
 30
0.0
 70
   192
  0
VERTEX
  5
18E
100
AcDbEntity
  8
0
100
AcDbVertex
100
AcDbPolyFaceMeshVertex
 10
8.649257
 20
18.703116
 30
0.0
 70
   192
  0
VERTEX
  5
18F
100
AcDbEntity
  8
___C_____1
  6
CONTINUOUS
 62
    18
100
AcDbFaceRecord
 10
0.0
 20
0.0
 30
0.0
 70
   128
 71
     1
 72
    16
 73
     7
 74
     4
  0
VERTEX
  5
190
100
AcDbEntity
  8
___C_____1
  6
CONTINUOUS
 62
    18
100
AcDbFaceRecord
 10
0.0
 20
0.0
 30
0.0
 70
   128
 71
     2
 72
     1
 73
     4
 74
     3
  0
VERTEX
  5
191
100
AcDbEntity
  8
___C_____1
  6
CONTINUOUS
 62
    18
100
AcDbFaceRecord
 10
0.0
 20
0.0
 30
0.0
 70
   128
 71
     5
 72
     4
 73
     7
 74
     6
  0
VERTEX
  5
192
100
AcDbEntity
  8
___C_____1
  6
CONTINUOUS
 62
    18
100
AcDbFaceRecord
 10
0.0
 20
0.0
 30
0.0
 70
   128
 71
     7
 72
    16
 73
    13
 74
    10
  0
VERTEX
  5
193
100
AcDbEntity
  8
___C_____1
  6
CONTINUOUS
 62
    18
100
AcDbFaceRecord
 10
0.0
 20
0.0
 30
0.0
 70
   128
 71
     8
 72
     7
 73
    10
 74
     9
  0
VERTEX
  5
194
100
AcDbEntity
  8
___C_____1
  6
CONTINUOUS
 62
    18
100
AcDbFaceRecord
 10
0.0
 20
0.0
 30
0.0
 70
   128
 71
    11
 72
    10
 73
    13
 74
    12
  0
VERTEX
  5
195
100
AcDbEntity
  8
___C_____1
  6
CONTINUOUS
 62
    18
100
AcDbFaceRecord
 10
0.0
 20
0.0
 30
0.0
 70
   128
 71
    14
 72
    13
 73
    16
 74
    15
  0
SEQEND
  5
196
100
AcDbEntity
  8
___C_____1
  6
CONTINUOUS
 62
    18
  0
POLYLINE
  5
197
100
AcDbEntity
  8
___C_____1
  6
CONTINUOUS
 62
    18
100
AcDb3dPolyline
 66
     1
 10
0.0
 20
0.0
 30
0.0
 70
     8
  0
VERTEX
  5
198
100
AcDbEntity
  8
___C_____1
  6
CONTINUOUS
100
AcDbVertex
100
AcDb3dPolylineVertex
 10
10.530198
 20
18.454689
 30
0.0
 70
    32
  0
VERTEX
  5
199
100
AcDbEntity
  8
___C_____1
  6
CONTINUOUS
100
AcDbVertex
100
AcDb3dPolylineVertex
 10
8.770609
 20
18.732915
 30
0.0
 70
    32
  0
SEQEND
  5
19A
100
AcDbEntity
  8
___C_____1
  6
CONTINUOUS
 62
    18
  0
POLYLINE
  5
19B
100
AcDbEntity
  8
___C_____1
  6
CONTINUOUS
 62
    18
100
AcDb3dPolyline
 66
     1
 10
0.0
 20
0.0
 30
0.0
 70
     8
  0
VERTEX
  5
19C
100
AcDbEntity
  8
___C_____1
  6
CONTINUOUS
100
AcDbVertex
100
AcDb3dPolylineVertex
 10
10.606162
 20
14.846136
 30
0.0
 70
    32
  0
VERTEX
  5
19D
100
AcDbEntity
  8
___C_____1
  6
CONTINUOUS
100
AcDbVertex
100
AcDb3dPolylineVertex
 10
10.626554
 20
14.867789
 30
0.0
 70
    32
  0
VERTEX
  5
19E
100
AcDbEntity
  8
___C_____1
  6
CONTINUOUS
100
AcDbVertex
100
AcDb3dPolylineVertex
 10
10.634905
 20
14.904884
 30
0.0
 70
    32
  0
VERTEX
  5
19F
100
AcDbEntity
  8
___C_____1
  6
CONTINUOUS
100
AcDbVertex
100
AcDb3dPolylineVertex
 10
10.636511
 20
14.95071
 30
0.0
 70
    32
  0
VERTEX
  5
1A0
100
AcDbEntity
  8
___C_____1
  6
CONTINUOUS
100
AcDbVertex
100
AcDb3dPolylineVertex
 10
10.636511
 20
18.348341
 30
0.0
 70
    32
  0
SEQEND
  5
1A1
100
AcDbEntity
  8
___C_____1
  6
CONTINUOUS
 62
    18
  0
POLYLINE
  5
1A2
100
AcDbEntity
  8
___C_____1
  6
CONTINUOUS
 62
    18
100
AcDb3dPolyline
 66
     1
 10
0.0
 20
0.0
 30
0.0
 70
     8
  0
VERTEX
  5
1A3
100
AcDbEntity
  8
___C_____1
  6
CONTINUOUS
100
AcDbVertex
100
AcDb3dPolylineVertex
 10
10.833192
 20
18.436585
 30
0.0
 70
    32
  0
VERTEX
  5
1A4
100
AcDbEntity
  8
___C_____1
  6
CONTINUOUS
100
AcDbVertex
100
AcDb3dPolylineVertex
 10
10.833192
 20
14.834233
 30
0.0
 70
    32
  0
VERTEX
  5
1A5
100
AcDbEntity
  8
___C_____1
  6
CONTINUOUS
100
AcDbVertex
100
AcDb3dPolylineVertex
 10
10.831427
 20
14.811741
 30
0.0
 70
    32
  0
VERTEX
  5
1A6
100
AcDbEntity
  8
___C_____1
  6
CONTINUOUS
100
AcDbVertex
100
AcDb3dPolylineVertex
 10
10.814105
 20
14.765554
 30
0.0
 70
    32
  0
VERTEX
  5
1A7
100
AcDbEntity
  8
___C_____1
  6
CONTINUOUS
100
AcDbVertex
100
AcDb3dPolylineVertex
 10
10.76319
 20
14.727606
 30
0.0
 70
    32
  0
SEQEND
  5
1A8
100
AcDbEntity
  8
___C_____1
  6
CONTINUOUS
 62
    18
  0
POLYLINE
  5
1A9
100
AcDbEntity
  8
___C_____1
  6
CONTINUOUS
 62
    18
100
AcDb3dPolyline
 66
     1
 10
0.0
 20
0.0
 30
0.0
 70
     8
  0
VERTEX
  5
1AA
100
AcDbEntity
  8
___C_____1
  6
CONTINUOUS
100
AcDbVertex
100
AcDb3dPolylineVertex
 10
10.60747
 20
18.613768
 30
0.0
 70
    32
  0
VERTEX
  5
1AB
100
AcDbEntity
  8
___C_____1
  6
CONTINUOUS
100
AcDbVertex
100
AcDb3dPolylineVertex
 10
9.00357
 20
18.857008
 30
0.0
 70
    32
  0
SEQEND
  5
1AC
100
AcDbEntity
  8
___C_____1
  6
CONTINUOUS
 62
    18
  0
POLYLINE
  5
1AD
100
AcDbEntity
  8
___C_____1
  6
CONTINUOUS
 62
    18
100
AcDb3dPolyline
 66
     1
 10
0.0
 20
0.0
 30
0.0
 70
     8
  0
VERTEX
  5
1AE
100
AcDbEntity
  8
___C_____1
  6
CONTINUOUS
100
AcDbVertex
100
AcDb3dPolylineVertex
 10
11.243713
 20
18.654386
 30
0.0
 70
    32
  0
VERTEX
  5
1AF
100
AcDbEntity
  8
___C_____1
  6
CONTINUOUS
100
AcDbVertex
100
AcDb3dPolylineVertex
 10
10.864681
 20
18.547018
 30
0.0
 70
    32
  0
SEQEND
  5
1B0
100
AcDbEntity
  8
___C_____1
  6
CONTINUOUS
 62
    18
  0
POLYLINE
  5
1B1
100
AcDbEntity
  8
___C_____1
  6
CONTINUOUS
 62
    18
100
AcDb3dPolyline
 66
     1
 10
0.0
 20
0.0
 30
0.0
 70
     8
  0
VERTEX
  5
1B2
100
AcDbEntity
  8
___C_____1
  6
CONTINUOUS
100
AcDbVertex
100
AcDb3dPolylineVertex
 10
11.059535
 20
19.037172
 30
0.0
 70
    32
  0
VERTEX
  5
1B3
100
AcDbEntity
  8
___C_____1
  6
CONTINUOUS
100
AcDbVertex
100
AcDb3dPolylineVertex
 10
10.690222
 20
19.767946
 30
0.0
 70
    32
  0
VERTEX
  5
1B4
100
AcDbEntity
  8
___C_____1
  6
CONTINUOUS
100
AcDbVertex
100
AcDb3dPolylineVertex
 10
10.651222
 20
19.758989
 30
0.0
 70
    32
  0
SEQEND
  5
1B5
100
AcDbEntity
  8
___C_____1
  6
CONTINUOUS
 62
    18
  0
POLYLINE
  5
1B6
100
AcDbEntity
  8
___C_____1
  6
CONTINUOUS
 62
    18
100
AcDb3dPolyline
 66
     1
 10
0.0
 20
0.0
 30
0.0
 70
     8
  0
VERTEX
  5
1B7
100
AcDbEntity
  8
___C_____1
  6
CONTINUOUS
100
AcDbVertex
100
AcDb3dPolylineVertex
 10
10.690222
 20
19.767946
 30
0.0
 70
    32
  0
VERTEX
  5
1B8
100
AcDbEntity
  8
___C_____1
  6
CONTINUOUS
100
AcDbVertex
100
AcDb3dPolylineVertex
 10
10.34149
 20
19.806515
 30
0.0
 70
    32
  0
VERTEX
  5
1B9
100
AcDbEntity
  8
___C_____1
  6
CONTINUOUS
100
AcDbVertex
100
AcDb3dPolylineVertex
 10
10.323646
 20
19.794387
 30
0.0
 70
    32
  0
SEQEND
  5
1BA
100
AcDbEntity
  8
___C_____1
  6
CONTINUOUS
 62
    18
  0
POLYLINE
  5
1BB
100
AcDbEntity
  8
___C_____1
  6
CONTINUOUS
 62
    18
100
AcDb3dPolyline
 66
     1
 10
0.0
 20
0.0
 30
0.0
 70
     8
  0
VERTEX
  5
1BC
100
AcDbEntity
  8
___C_____1
  6
CONTINUOUS
100
AcDbVertex
100
AcDb3dPolylineVertex
 10
9.747178
 20
15.023851
 30
0.0
 70
    32
  0
VERTEX
  5
1BD
100
AcDbEntity
  8
___C_____1
  6
CONTINUOUS
100
AcDbVertex
100
AcDb3dPolylineVertex
 10
9.718239
 20
15.381727
 30
0.0
 70
    32
  0
VERTEX
  5
1BE
100
AcDbEntity
  8
___C_____1
  6
CONTINUOUS
100
AcDbVertex
100
AcDb3dPolylineVertex
 10
9.494807
 20
15.586709
 30
0.0
 70
    32
  0
VERTEX
  5
1BF
100
AcDbEntity
  8
___C_____1
  6
CONTINUOUS
100
AcDbVertex
100
AcDb3dPolylineVertex
 10
9.24214
 20
15.442688
 30
0.0
 70
    32
  0
VERTEX
  5
1C0
100
AcDbEntity
  8
___C_____1
  6
CONTINUOUS
100
AcDbVertex
100
AcDb3dPolylineVertex
 10
9.187347
 20
15.089927
 30
0.0
 70
    32
  0
VERTEX
  5
1C1
100
AcDbEntity
  8
___C_____1
  6
CONTINUOUS
100
AcDbVertex
100
AcDb3dPolylineVertex
 10
9.164539
 20
15.08581
 30
0.0
 70
    32
  0
SEQEND
  5
1C2
100
AcDbEntity
  8
___C_____1
  6
CONTINUOUS
 62
    18
  0
POLYLINE
  5
1C3
100
AcDbEntity
  8
___C_____1
  6
CONTINUOUS
 62
    18
100
AcDb3dPolyline
 66
     1
 10
0.0
 20
0.0
 30
0.0
 70
     8
  0
VERTEX
  5
1C4
100
AcDbEntity
  8
___C_____1
  6
CONTINUOUS
100
AcDbVertex
100
AcDb3dPolylineVertex
 10
9.497181
 20
15.628757
 30
0.0
 70
    32
  0
VERTEX
  5
1C5
100
AcDbEntity
  8
___C_____1
  6
CONTINUOUS
100
AcDbVertex
100
AcDb3dPolylineVertex
 10
9.535835
 20
15.639626
 30
0.0
 70
    32
  0
VERTEX
  5
1C6
100
AcDbEntity
  8
___C_____1
  6
CONTINUOUS
100
AcDbVertex
100
AcDb3dPolylineVertex
 10
9.766143
 20
15.425137
 30
0.0
 70
    32
  0
VERTEX
  5
1C7
100
AcDbEntity
  8
___C_____1
  6
CONTINUOUS
100
AcDbVertex
100
AcDb3dPolylineVertex
 10
9.794598
 20
15.022835
 30
0.0
 70
    32
  0
VERTEX
  5
1C8
100
AcDbEntity
  8
___C_____1
  6
CONTINUOUS
100
AcDbVertex
100
AcDb3dPolylineVertex
 10
9.774963
 20
15.016651
 30
0.0
 70
    32
  0
VERTEX
  5
1C9
100
AcDbEntity
  8
___C_____1
  6
CONTINUOUS
100
AcDbVertex
100
AcDb3dPolylineVertex
 10
9.164539
 20
15.08581
 30
0.0
 70
    32
  0
VERTEX
  5
1CA
100
AcDbEntity
  8
___C_____1
  6
CONTINUOUS
100
AcDbVertex
100
AcDb3dPolylineVertex
 10
9.206675
 20
15.46305
 30
0.0
 70
    32
  0
VERTEX
  5
1CB
100
AcDbEntity
  8
___C_____1
  6
CONTINUOUS
100
AcDbVertex
100
AcDb3dPolylineVertex
 10
9.497181
 20
15.628757
 30
0.0
 70
    32
  0
VERTEX
  5
1CC
100
AcDbEntity
  8
___C_____1
  6
CONTINUOUS
100
AcDbVertex
100
AcDb3dPolylineVertex
 10
9.754223
 20
15.39296
 30
0.0
 70
    32
  0
VERTEX
  5
1CD
100
AcDbEntity
  8
___C_____1
  6
CONTINUOUS
100
AcDbVertex
100
AcDb3dPolylineVertex
 10
9.774963
 20
15.016651
 30
0.0
 70
    32
  0
SEQEND
  5
1CE
100
AcDbEntity
  8
___C_____1
  6
CONTINUOUS
 62
    18
  0
POLYLINE
  5
1CF
100
AcDbEntity
  8
___C_____1
  6
CONTINUOUS
 62
    18
100
AcDb3dPolyline
 66
     1
 10
0.0
 20
0.0
 30
0.0
 70
     8
  0
VERTEX
  5
1D0
100
AcDbEntity
  8
___C_____1
  6
CONTINUOUS
100
AcDbVertex
100
AcDb3dPolylineVertex
 10
9.754223
 20
15.39296
 30
0.0
 70
    32
  0
VERTEX
  5
1D1
100
AcDbEntity
  8
___C_____1
  6
CONTINUOUS
100
AcDbVertex
100
AcDb3dPolylineVertex
 10
9.766143
 20
15.425137
 30
0.0
 70
    32
  0
SEQEND
  5
1D2
100
AcDbEntity
  8
___C_____1
  6
CONTINUOUS
 62
    18
  0
POLYLINE
  5
1D3
100
AcDbEntity
  8
___C_____1
  6
CONTINUOUS
 62
    18
100
AcDb3dPolyline
 66
     1
 10
0.0
 20
0.0
 30
0.0
 70
     8
  0
VERTEX
  5
1D4
100
AcDbEntity
  8
___C_____1
  6
CONTINUOUS
100
AcDbVertex
100
AcDb3dPolylineVertex
 10
9.774963
 20
15.016651
 30
0.0
 70
    32
  0
VERTEX
  5
1D5
100
AcDbEntity
  8
___C_____1
  6
CONTINUOUS
100
AcDbVertex
100
AcDb3dPolylineVertex
 10
9.747178
 20
15.023851
 30
0.0
 70
    32
  0
VERTEX
  5
1D6
100
AcDbEntity
  8
___C_____1
  6
CONTINUOUS
100
AcDbVertex
100
AcDb3dPolylineVertex
 10
9.187777
 20
15.089944
 30
0.0
 70
    32
  0
SEQEND
  5
1D7
100
AcDbEntity
  8
___C_____1
  6
CONTINUOUS
 62
    18
  0
POLYLINE
  5
1D8
100
AcDbEntity
  8
___C_____1
  6
CONTINUOUS
 62
    18
100
AcDbPolyFaceMesh
 66
     1
 10
0.0
 20
0.0
 30
0.0
 70
    64
  0
VERTEX
  5
1D9
100
AcDbEntity
  8
0
100
AcDbVertex
100
AcDbPolyFaceMeshVertex
 10
9.339295
 20
15.269332
 30
0.0
 70
   192
  0
VERTEX
  5
1DA
100
AcDbEntity
  8
0
100
AcDbVertex
100
AcDbPolyFaceMeshVertex
 10
9.357833
 20
15.189231
 30
0.0
 70
   192
  0
VERTEX
  5
1DB
100
AcDbEntity
  8
0
100
AcDbVertex
100
AcDbPolyFaceMeshVertex
 10
9.406527
 20
15.132309
 30
0.0
 70
   192
  0
VERTEX
  5
1DC
100
AcDbEntity
  8
0
100
AcDbVertex
100
AcDbPolyFaceMeshVertex
 10
9.474995
 20
15.110649
 30
0.0
 70
   192
  0
VERTEX
  5
1DD
100
AcDbEntity
  8
0
100
AcDbVertex
100
AcDbPolyFaceMeshVertex
 10
9.543486
 20
15.132309
 30
0.0
 70
   192
  0
VERTEX
  5
1DE
100
AcDbEntity
  8
0
100
AcDbVertex
100
AcDbPolyFaceMeshVertex
 10
9.592181
 20
15.189231
 30
0.0
 70
   192
  0
VERTEX
  5
1DF
100
AcDbEntity
  8
0
100
AcDbVertex
100
AcDbPolyFaceMeshVertex
 10
9.610716
 20
15.269332
 30
0.0
 70
   192
  0
VERTEX
  5
1E0
100
AcDbEntity
  8
0
100
AcDbVertex
100
AcDbPolyFaceMeshVertex
 10
9.592181
 20
15.349435
 30
0.0
 70
   192
  0
VERTEX
  5
1E1
100
AcDbEntity
  8
0
100
AcDbVertex
100
AcDbPolyFaceMeshVertex
 10
9.543486
 20
15.406366
 30
0.0
 70
   192
  0
VERTEX
  5
1E2
100
AcDbEntity
  8
0
100
AcDbVertex
100
AcDbPolyFaceMeshVertex
 10
9.474995
 20
15.42803
 30
0.0
 70
   192
  0
VERTEX
  5
1E3
100
AcDbEntity
  8
0
100
AcDbVertex
100
AcDbPolyFaceMeshVertex
 10
9.406527
 20
15.406366
 30
0.0
 70
   192
  0
VERTEX
  5
1E4
100
AcDbEntity
  8
0
100
AcDbVertex
100
AcDbPolyFaceMeshVertex
 10
9.357833
 20
15.349435
 30
0.0
 70
   192
  0
VERTEX
  5
1E5
100
AcDbEntity
  8
___C_____1
  6
CONTINUOUS
 62
    18
100
AcDbFaceRecord
 10
0.0
 20
0.0
 30
0.0
 70
   128
 71
     1
 72
    10
 73
     7
 74
     4
  0
VERTEX
  5
1E6
100
AcDbEntity
  8
___C_____1
  6
CONTINUOUS
 62
    18
100
AcDbFaceRecord
 10
0.0
 20
0.0
 30
0.0
 70
   128
 71
     2
 72
     1
 73
     4
 74
     3
  0
VERTEX
  5
1E7
100
AcDbEntity
  8
___C_____1
  6
CONTINUOUS
 62
    18
100
AcDbFaceRecord
 10
0.0
 20
0.0
 30
0.0
 70
   128
 71
     5
 72
     4
 73
     7
 74
     6
  0
VERTEX
  5
1E8
100
AcDbEntity
  8
___C_____1
  6
CONTINUOUS
 62
    18
100
AcDbFaceRecord
 10
0.0
 20
0.0
 30
0.0
 70
   128
 71
     8
 72
     7
 73
    10
 74
     9
  0
VERTEX
  5
1E9
100
AcDbEntity
  8
___C_____1
  6
CONTINUOUS
 62
    18
100
AcDbFaceRecord
 10
0.0
 20
0.0
 30
0.0
 70
   128
 71
    11
 72
    10
 73
     1
 74
    12
  0
SEQEND
  5
1EA
100
AcDbEntity
  8
___C_____1
  6
CONTINUOUS
 62
    18
  0
POLYLINE
  5
1EB
100
AcDbEntity
  8
___C_____1
  6
CONTINUOUS
 62
    18
100
AcDb3dPolyline
 66
     1
 10
0.0
 20
0.0
 30
0.0
 70
     8
  0
VERTEX
  5
1EC
100
AcDbEntity
  8
___C_____1
  6
CONTINUOUS
100
AcDbVertex
100
AcDb3dPolylineVertex
 10
9.439407
 20
15.423087
 30
0.0
 70
    32
  0
VERTEX
  5
1ED
100
AcDbEntity
  8
___C_____1
  6
CONTINUOUS
100
AcDbVertex
100
AcDb3dPolylineVertex
 10
9.397778
 20
15.390037
 30
0.0
 70
    32
  0
VERTEX
  5
1EE
100
AcDbEntity
  8
___C_____1
  6
CONTINUOUS
100
AcDbVertex
100
AcDb3dPolylineVertex
 10
9.369676
 20
15.341006
 30
0.0
 70
    32
  0
VERTEX
  5
1EF
100
AcDbEntity
  8
___C_____1
  6
CONTINUOUS
100
AcDbVertex
100
AcDb3dPolylineVertex
 10
9.359361
 20
15.280992
 30
0.0
 70
    32
  0
VERTEX
  5
1F0
100
AcDbEntity
  8
___C_____1
  6
CONTINUOUS
100
AcDbVertex
100
AcDb3dPolylineVertex
 10
9.377261
 20
15.203168
 30
0.0
 70
    32
  0
VERTEX
  5
1F1
100
AcDbEntity
  8
___C_____1
  6
CONTINUOUS
100
AcDbVertex
100
AcDb3dPolylineVertex
 10
9.424288
 20
15.147856
 30
0.0
 70
    32
  0
VERTEX
  5
1F2
100
AcDbEntity
  8
___C_____1
  6
CONTINUOUS
100
AcDbVertex
100
AcDb3dPolylineVertex
 10
9.490429
 20
15.126806
 30
0.0
 70
    32
  0
VERTEX
  5
1F3
100
AcDbEntity
  8
___C_____1
  6
CONTINUOUS
100
AcDbVertex
100
AcDb3dPolylineVertex
 10
9.523607
 20
15.131778
 30
0.0
 70
    32
  0
VERTEX
  5
1F4
100
AcDbEntity
  8
___C_____1
  6
CONTINUOUS
100
AcDbVertex
100
AcDb3dPolylineVertex
 10
9.553624
 20
15.14586
 30
0.0
 70
    32
  0
VERTEX
  5
1F5
100
AcDbEntity
  8
___C_____1
  6
CONTINUOUS
100
AcDbVertex
100
AcDb3dPolylineVertex
 10
9.579453
 20
15.167803
 30
0.0
 70
    32
  0
SEQEND
  5
1F6
100
AcDbEntity
  8
___C_____1
  6
CONTINUOUS
 62
    18
  0
POLYLINE
  5
1F7
100
AcDbEntity
  8
___C_____1
  6
CONTINUOUS
 62
    18
100
AcDbPolyFaceMesh
 66
     1
 10
0.0
 20
0.0
 30
0.0
 70
    64
  0
VERTEX
  5
1F8
100
AcDbEntity
  8
0
100
AcDbVertex
100
AcDbPolyFaceMeshVertex
 10
9.434242
 20
15.269332
 30
0.0
 70
   192
  0
VERTEX
  5
1F9
100
AcDbEntity
  8
0
100
AcDbVertex
100
AcDbPolyFaceMeshVertex
 10
9.439808
 20
15.242089
 30
0.0
 70
   192
  0
VERTEX
  5
1FA
100
AcDbEntity
  8
0
100
AcDbVertex
100
AcDbPolyFaceMeshVertex
 10
9.454431
 20
15.22273
 30
0.0
 70
   192
  0
VERTEX
  5
1FB
100
AcDbEntity
  8
0
100
AcDbVertex
100
AcDbPolyFaceMeshVertex
 10
9.474995
 20
15.215364
 30
0.0
 70
   192
  0
VERTEX
  5
1FC
100
AcDbEntity
  8
0
100
AcDbVertex
100
AcDbPolyFaceMeshVertex
 10
9.495591
 20
15.22273
 30
0.0
 70
   192
  0
VERTEX
  5
1FD
100
AcDbEntity
  8
0
100
AcDbVertex
100
AcDbPolyFaceMeshVertex
 10
9.5102
 20
15.242089
 30
0.0
 70
   192
  0
VERTEX
  5
1FE
100
AcDbEntity
  8
0
100
AcDbVertex
100
AcDbPolyFaceMeshVertex
 10
9.515752
 20
15.269332
 30
0.0
 70
   192
  0
VERTEX
  5
1FF
100
AcDbEntity
  8
0
100
AcDbVertex
100
AcDbPolyFaceMeshVertex
 10
9.5102
 20
15.296597
 30
0.0
 70
   192
  0
VERTEX
  5
200
100
AcDbEntity
  8
0
100
AcDbVertex
100
AcDbPolyFaceMeshVertex
 10
9.495591
 20
15.315975
 30
0.0
 70
   192
  0
VERTEX
  5
201
100
AcDbEntity
  8
0
100
AcDbVertex
100
AcDbPolyFaceMeshVertex
 10
9.474995
 20
15.32335
 30
0.0
 70
   192
  0
VERTEX
  5
202
100
AcDbEntity
  8
0
100
AcDbVertex
100
AcDbPolyFaceMeshVertex
 10
9.454431
 20
15.315975
 30
0.0
 70
   192
  0
VERTEX
  5
203
100
AcDbEntity
  8
0
100
AcDbVertex
100
AcDbPolyFaceMeshVertex
 10
9.439808
 20
15.296597
 30
0.0
 70
   192
  0
VERTEX
  5
204
100
AcDbEntity
  8
___C_____1
  6
CONTINUOUS
 62
    18
100
AcDbFaceRecord
 10
0.0
 20
0.0
 30
0.0
 70
   128
 71
     1
 72
    10
 73
     7
 74
     4
  0
VERTEX
  5
205
100
AcDbEntity
  8
___C_____1
  6
CONTINUOUS
 62
    18
100
AcDbFaceRecord
 10
0.0
 20
0.0
 30
0.0
 70
   128
 71
     2
 72
     1
 73
     4
 74
     3
  0
VERTEX
  5
206
100
AcDbEntity
  8
___C_____1
  6
CONTINUOUS
 62
    18
100
AcDbFaceRecord
 10
0.0
 20
0.0
 30
0.0
 70
   128
 71
     5
 72
     4
 73
     7
 74
     6
  0
VERTEX
  5
207
100
AcDbEntity
  8
___C_____1
  6
CONTINUOUS
 62
    18
100
AcDbFaceRecord
 10
0.0
 20
0.0
 30
0.0
 70
   128
 71
     8
 72
     7
 73
    10
 74
     9
  0
VERTEX
  5
208
100
AcDbEntity
  8
___C_____1
  6
CONTINUOUS
 62
    18
100
AcDbFaceRecord
 10
0.0
 20
0.0
 30
0.0
 70
   128
 71
    11
 72
    10
 73
     1
 74
    12
  0
SEQEND
  5
209
100
AcDbEntity
  8
___C_____1
  6
CONTINUOUS
 62
    18
  0
POLYLINE
  5
20A
100
AcDbEntity
  8
___C_____1
  6
CONTINUOUS
 62
    18
100
AcDb3dPolyline
 66
     1
 10
0.0
 20
0.0
 30
0.0
 70
     8
  0
VERTEX
  5
20B
100
AcDbEntity
  8
___C_____1
  6
CONTINUOUS
100
AcDbVertex
100
AcDb3dPolylineVertex
 10
9.809567
 20
14.452033
 30
0.0
 70
    32
  0
VERTEX
  5
20C
100
AcDbEntity
  8
___C_____1
  6
CONTINUOUS
100
AcDbVertex
100
AcDb3dPolylineVertex
 10
9.794485
 20
14.443878
 30
0.0
 70
    32
  0
VERTEX
  5
20D
100
AcDbEntity
  8
___C_____1
  6
CONTINUOUS
100
AcDbVertex
100
AcDb3dPolylineVertex
 10
9.777056
 20
14.435486
 30
0.0
 70
    32
  0
VERTEX
  5
20E
100
AcDbEntity
  8
___C_____1
  6
CONTINUOUS
100
AcDbVertex
100
AcDb3dPolylineVertex
 10
9.760044
 20
14.429053
 30
0.0
 70
    32
  0
VERTEX
  5
20F
100
AcDbEntity
  8
___C_____1
  6
CONTINUOUS
100
AcDbVertex
100
AcDb3dPolylineVertex
 10
9.73399
 20
14.422908
 30
0.0
 70
    32
  0
VERTEX
  5
210
100
AcDbEntity
  8
___C_____1
  6
CONTINUOUS
100
AcDbVertex
100
AcDb3dPolylineVertex
 10
9.714532
 20
14.420192
 30
0.0
 70
    32
  0
VERTEX
  5
211
100
AcDbEntity
  8
___C_____1
  6
CONTINUOUS
100
AcDbVertex
100
AcDb3dPolylineVertex
 10
9.706887
 20
14.419581
 30
0.0
 70
    32
  0
VERTEX
  5
212
100
AcDbEntity
  8
___C_____1
  6
CONTINUOUS
100
AcDbVertex
100
AcDb3dPolylineVertex
 10
9.706887
 20
14.365972
 30
0.0
 70
    32
  0
VERTEX
  5
213
100
AcDbEntity
  8
___C_____1
  6
CONTINUOUS
100
AcDbVertex
100
AcDb3dPolylineVertex
 10
9.717378
 20
14.367376
 30
0.0
 70
    32
  0
VERTEX
  5
214
100
AcDbEntity
  8
___C_____1
  6
CONTINUOUS
100
AcDbVertex
100
AcDb3dPolylineVertex
 10
9.742238
 20
14.371735
 30
0.0
 70
    32
  0
VERTEX
  5
215
100
AcDbEntity
  8
___C_____1
  6
CONTINUOUS
100
AcDbVertex
100
AcDb3dPolylineVertex
 10
9.771551
 20
14.379272
 30
0.0
 70
    32
  0
VERTEX
  5
216
100
AcDbEntity
  8
___C_____1
  6
CONTINUOUS
100
AcDbVertex
100
AcDb3dPolylineVertex
 10
9.786877
 20
14.385079
 30
0.0
 70
    32
  0
VERTEX
  5
217
100
AcDbEntity
  8
___C_____1
  6
CONTINUOUS
100
AcDbVertex
100
AcDb3dPolylineVertex
 10
9.799592
 20
14.391184
 30
0.0
 70
    32
  0
VERTEX
  5
218
100
AcDbEntity
  8
___C_____1
  6
CONTINUOUS
100
AcDbVertex
100
AcDb3dPolylineVertex
 10
9.809567
 20
14.396946
 30
0.0
 70
    32
  0
VERTEX
  5
219
100
AcDbEntity
  8
___C_____1
  6
CONTINUOUS
100
AcDbVertex
100
AcDb3dPolylineVertex
 10
9.809567
 20
14.323357
 30
0.0
 70
    32
  0
VERTEX
  5
21A
100
AcDbEntity
  8
___C_____1
  6
CONTINUOUS
100
AcDbVertex
100
AcDb3dPolylineVertex
 10
9.794485
 20
14.315194
 30
0.0
 70
    32
  0
VERTEX
  5
21B
100
AcDbEntity
  8
___C_____1
  6
CONTINUOUS
100
AcDbVertex
100
AcDb3dPolylineVertex
 10
9.777056
 20
14.306786
 30
0.0
 70
    32
  0
VERTEX
  5
21C
100
AcDbEntity
  8
___C_____1
  6
CONTINUOUS
100
AcDbVertex
100
AcDb3dPolylineVertex
 10
9.760044
 20
14.300345
 30
0.0
 70
    32
  0
VERTEX
  5
21D
100
AcDbEntity
  8
___C_____1
  6
CONTINUOUS
100
AcDbVertex
100
AcDb3dPolylineVertex
 10
9.73399
 20
14.294263
 30
0.0
 70
    32
  0
VERTEX
  5
21E
100
AcDbEntity
  8
___C_____1
  6
CONTINUOUS
100
AcDbVertex
100
AcDb3dPolylineVertex
 10
9.714532
 20
14.291556
 30
0.0
 70
    32
  0
VERTEX
  5
21F
100
AcDbEntity
  8
___C_____1
  6
CONTINUOUS
100
AcDbVertex
100
AcDb3dPolylineVertex
 10
9.706887
 20
14.29094
 30
0.0
 70
    32
  0
VERTEX
  5
220
100
AcDbEntity
  8
___C_____1
  6
CONTINUOUS
100
AcDbVertex
100
AcDb3dPolylineVertex
 10
9.706887
 20
14.237332
 30
0.0
 70
    32
  0
VERTEX
  5
221
100
AcDbEntity
  8
___C_____1
  6
CONTINUOUS
100
AcDbVertex
100
AcDb3dPolylineVertex
 10
9.717378
 20
14.238735
 30
0.0
 70
    32
  0
VERTEX
  5
222
100
AcDbEntity
  8
___C_____1
  6
CONTINUOUS
100
AcDbVertex
100
AcDb3dPolylineVertex
 10
9.742238
 20
14.243085
 30
0.0
 70
    32
  0
VERTEX
  5
223
100
AcDbEntity
  8
___C_____1
  6
CONTINUOUS
100
AcDbVertex
100
AcDb3dPolylineVertex
 10
9.771551
 20
14.250596
 30
0.0
 70
    32
  0
VERTEX
  5
224
100
AcDbEntity
  8
___C_____1
  6
CONTINUOUS
100
AcDbVertex
100
AcDb3dPolylineVertex
 10
9.786877
 20
14.25638
 30
0.0
 70
    32
  0
VERTEX
  5
225
100
AcDbEntity
  8
___C_____1
  6
CONTINUOUS
100
AcDbVertex
100
AcDb3dPolylineVertex
 10
9.799592
 20
14.262486
 30
0.0
 70
    32
  0
VERTEX
  5
226
100
AcDbEntity
  8
___C_____1
  6
CONTINUOUS
100
AcDbVertex
100
AcDb3dPolylineVertex
 10
9.809567
 20
14.26827
 30
0.0
 70
    32
  0
VERTEX
  5
227
100
AcDbEntity
  8
___C_____1
  6
CONTINUOUS
100
AcDbVertex
100
AcDb3dPolylineVertex
 10
9.809567
 20
14.239332
 30
0.0
 70
    32
  0
VERTEX
  5
228
100
AcDbEntity
  8
___C_____1
  6
CONTINUOUS
100
AcDbVertex
100
AcDb3dPolylineVertex
 10
9.798497
 20
14.220797
 30
0.0
 70
    32
  0
VERTEX
  5
229
100
AcDbEntity
  8
___C_____1
  6
CONTINUOUS
100
AcDbVertex
100
AcDb3dPolylineVertex
 10
9.747055
 20
14.189905
 30
0.0
 70
    32
  0
VERTEX
  5
22A
100
AcDbEntity
  8
___C_____1
  6
CONTINUOUS
100
AcDbVertex
100
AcDb3dPolylineVertex
 10
9.627889
 20
14.183727
 30
0.0
 70
    32
  0
VERTEX
  5
22B
100
AcDbEntity
  8
___C_____1
  6
CONTINUOUS
100
AcDbVertex
100
AcDb3dPolylineVertex
 10
9.539647
 20
14.206941
 30
0.0
 70
    32
  0
VERTEX
  5
22C
100
AcDbEntity
  8
___C_____1
  6
CONTINUOUS
100
AcDbVertex
100
AcDb3dPolylineVertex
 10
9.503788
 20
14.235399
 30
0.0
 70
    32
  0
VERTEX
  5
22D
100
AcDbEntity
  8
___C_____1
  6
CONTINUOUS
100
AcDbVertex
100
AcDb3dPolylineVertex
 10
9.497012
 20
14.249287
 30
0.0
 70
    32
  0
VERTEX
  5
22E
100
AcDbEntity
  8
___C_____1
  6
CONTINUOUS
100
AcDbVertex
100
AcDb3dPolylineVertex
 10
9.497012
 20
14.284188
 30
0.0
 70
    32
  0
VERTEX
  5
22F
100
AcDbEntity
  8
___C_____1
  6
CONTINUOUS
100
AcDbVertex
100
AcDb3dPolylineVertex
 10
9.513623
 20
14.281189
 30
0.0
 70
    32
  0
VERTEX
  5
230
100
AcDbEntity
  8
___C_____1
  6
CONTINUOUS
100
AcDbVertex
100
AcDb3dPolylineVertex
 10
9.525453
 20
14.279446
 30
0.0
 70
    32
  0
VERTEX
  5
231
100
AcDbEntity
  8
___C_____1
  6
CONTINUOUS
100
AcDbVertex
100
AcDb3dPolylineVertex
 10
9.529961
 20
14.278882
 30
0.0
 70
    32
  0
VERTEX
  5
232
100
AcDbEntity
  8
___C_____1
  6
CONTINUOUS
100
AcDbVertex
100
AcDb3dPolylineVertex
 10
9.529961
 20
14.332522
 30
0.0
 70
    32
  0
VERTEX
  5
233
100
AcDbEntity
  8
___C_____1
  6
CONTINUOUS
100
AcDbVertex
100
AcDb3dPolylineVertex
 10
9.525572
 20
14.332823
 30
0.0
 70
    32
  0
VERTEX
  5
234
100
AcDbEntity
  8
___C_____1
  6
CONTINUOUS
100
AcDbVertex
100
AcDb3dPolylineVertex
 10
9.51386
 20
14.334104
 30
0.0
 70
    32
  0
VERTEX
  5
235
100
AcDbEntity
  8
___C_____1
  6
CONTINUOUS
100
AcDbVertex
100
AcDb3dPolylineVertex
 10
9.497012
 20
14.336932
 30
0.0
 70
    32
  0
VERTEX
  5
236
100
AcDbEntity
  8
___C_____1
  6
CONTINUOUS
100
AcDbVertex
100
AcDb3dPolylineVertex
 10
9.497012
 20
14.40349
 30
0.0
 70
    32
  0
VERTEX
  5
237
100
AcDbEntity
  8
___C_____1
  6
CONTINUOUS
100
AcDbVertex
100
AcDb3dPolylineVertex
 10
9.513623
 20
14.400499
 30
0.0
 70
    32
  0
VERTEX
  5
238
100
AcDbEntity
  8
___C_____1
  6
CONTINUOUS
100
AcDbVertex
100
AcDb3dPolylineVertex
 10
9.525453
 20
14.39873
 30
0.0
 70
    32
  0
VERTEX
  5
239
100
AcDbEntity
  8
___C_____1
  6
CONTINUOUS
100
AcDbVertex
100
AcDb3dPolylineVertex
 10
9.529961
 20
14.398149
 30
0.0
 70
    32
  0
VERTEX
  5
23A
100
AcDbEntity
  8
___C_____1
  6
CONTINUOUS
100
AcDbVertex
100
AcDb3dPolylineVertex
 10
9.529961
 20
14.451758
 30
0.0
 70
    32
  0
VERTEX
  5
23B
100
AcDbEntity
  8
___C_____1
  6
CONTINUOUS
100
AcDbVertex
100
AcDb3dPolylineVertex
 10
9.525572
 20
14.45206
 30
0.0
 70
    32
  0
VERTEX
  5
23C
100
AcDbEntity
  8
___C_____1
  6
CONTINUOUS
100
AcDbVertex
100
AcDb3dPolylineVertex
 10
9.51386
 20
14.453351
 30
0.0
 70
    32
  0
VERTEX
  5
23D
100
AcDbEntity
  8
___C_____1
  6
CONTINUOUS
100
AcDbVertex
100
AcDb3dPolylineVertex
 10
9.497012
 20
14.456203
 30
0.0
 70
    32
  0
VERTEX
  5
23E
100
AcDbEntity
  8
___C_____1
  6
CONTINUOUS
100
AcDbVertex
100
AcDb3dPolylineVertex
 10
9.497012
 20
14.522761
 30
0.0
 70
    32
  0
VERTEX
  5
23F
100
AcDbEntity
  8
___C_____1
  6
CONTINUOUS
100
AcDbVertex
100
AcDb3dPolylineVertex
 10
9.513623
 20
14.519786
 30
0.0
 70
    32
  0
VERTEX
  5
240
100
AcDbEntity
  8
___C_____1
  6
CONTINUOUS
100
AcDbVertex
100
AcDb3dPolylineVertex
 10
9.525453
 20
14.518053
 30
0.0
 70
    32
  0
VERTEX
  5
241
100
AcDbEntity
  8
___C_____1
  6
CONTINUOUS
100
AcDbVertex
100
AcDb3dPolylineVertex
 10
9.529961
 20
14.517491
 30
0.0
 70
    32
  0
VERTEX
  5
242
100
AcDbEntity
  8
___C_____1
  6
CONTINUOUS
100
AcDbVertex
100
AcDb3dPolylineVertex
 10
9.529961
 20
14.571095
 30
0.0
 70
    32
  0
VERTEX
  5
243
100
AcDbEntity
  8
___C_____1
  6
CONTINUOUS
100
AcDbVertex
100
AcDb3dPolylineVertex
 10
9.525572
 20
14.571395
 30
0.0
 70
    32
  0
VERTEX
  5
244
100
AcDbEntity
  8
___C_____1
  6
CONTINUOUS
100
AcDbVertex
100
AcDb3dPolylineVertex
 10
9.51386
 20
14.572668
 30
0.0
 70
    32
  0
VERTEX
  5
245
100
AcDbEntity
  8
___C_____1
  6
CONTINUOUS
100
AcDbVertex
100
AcDb3dPolylineVertex
 10
9.497012
 20
14.57547
 30
0.0
 70
    32
  0
VERTEX
  5
246
100
AcDbEntity
  8
___C_____1
  6
CONTINUOUS
100
AcDbVertex
100
AcDb3dPolylineVertex
 10
9.497012
 20
14.642029
 30
0.0
 70
    32
  0
VERTEX
  5
247
100
AcDbEntity
  8
___C_____1
  6
CONTINUOUS
100
AcDbVertex
100
AcDb3dPolylineVertex
 10
9.513623
 20
14.639055
 30
0.0
 70
    32
  0
VERTEX
  5
248
100
AcDbEntity
  8
___C_____1
  6
CONTINUOUS
100
AcDbVertex
100
AcDb3dPolylineVertex
 10
9.525453
 20
14.637321
 30
0.0
 70
    32
  0
VERTEX
  5
249
100
AcDbEntity
  8
___C_____1
  6
CONTINUOUS
100
AcDbVertex
100
AcDb3dPolylineVertex
 10
9.529961
 20
14.636758
 30
0.0
 70
    32
  0
VERTEX
  5
24A
100
AcDbEntity
  8
___C_____1
  6
CONTINUOUS
100
AcDbVertex
100
AcDb3dPolylineVertex
 10
9.529961
 20
14.690331
 30
0.0
 70
    32
  0
VERTEX
  5
24B
100
AcDbEntity
  8
___C_____1
  6
CONTINUOUS
100
AcDbVertex
100
AcDb3dPolylineVertex
 10
9.525572
 20
14.690652
 30
0.0
 70
    32
  0
VERTEX
  5
24C
100
AcDbEntity
  8
___C_____1
  6
CONTINUOUS
100
AcDbVertex
100
AcDb3dPolylineVertex
 10
9.51386
 20
14.691984
 30
0.0
 70
    32
  0
VERTEX
  5
24D
100
AcDbEntity
  8
___C_____1
  6
CONTINUOUS
100
AcDbVertex
100
AcDb3dPolylineVertex
 10
9.497012
 20
14.694878
 30
0.0
 70
    32
  0
VERTEX
  5
24E
100
AcDbEntity
  8
___C_____1
  6
CONTINUOUS
100
AcDbVertex
100
AcDb3dPolylineVertex
 10
9.497012
 20
14.761299
 30
0.0
 70
    32
  0
VERTEX
  5
24F
100
AcDbEntity
  8
___C_____1
  6
CONTINUOUS
100
AcDbVertex
100
AcDb3dPolylineVertex
 10
9.513623
 20
14.758334
 30
0.0
 70
    32
  0
VERTEX
  5
250
100
AcDbEntity
  8
___C_____1
  6
CONTINUOUS
100
AcDbVertex
100
AcDb3dPolylineVertex
 10
9.525453
 20
14.756617
 30
0.0
 70
    32
  0
VERTEX
  5
251
100
AcDbEntity
  8
___C_____1
  6
CONTINUOUS
100
AcDbVertex
100
AcDb3dPolylineVertex
 10
9.529961
 20
14.756064
 30
0.0
 70
    32
  0
VERTEX
  5
252
100
AcDbEntity
  8
___C_____1
  6
CONTINUOUS
100
AcDbVertex
100
AcDb3dPolylineVertex
 10
9.529961
 20
14.809634
 30
0.0
 70
    32
  0
VERTEX
  5
253
100
AcDbEntity
  8
___C_____1
  6
CONTINUOUS
100
AcDbVertex
100
AcDb3dPolylineVertex
 10
9.525572
 20
14.809943
 30
0.0
 70
    32
  0
VERTEX
  5
254
100
AcDbEntity
  8
___C_____1
  6
CONTINUOUS
100
AcDbVertex
100
AcDb3dPolylineVertex
 10
9.51386
 20
14.811237
 30
0.0
 70
    32
  0
VERTEX
  5
255
100
AcDbEntity
  8
___C_____1
  6
CONTINUOUS
100
AcDbVertex
100
AcDb3dPolylineVertex
 10
9.497012
 20
14.814061
 30
0.0
 70
    32
  0
VERTEX
  5
256
100
AcDbEntity
  8
___C_____1
  6
CONTINUOUS
100
AcDbVertex
100
AcDb3dPolylineVertex
 10
9.497012
 20
14.853646
 30
0.0
 70
    32
  0
SEQEND
  5
257
100
AcDbEntity
  8
___C_____1
  6
CONTINUOUS
 62
    18
  0
POLYLINE
  5
258
100
AcDbEntity
  8
___C_____1
  6
CONTINUOUS
 62
    18
100
AcDb3dPolyline
 66
     1
 10
0.0
 20
0.0
 30
0.0
 70
     8
  0
VERTEX
  5
259
100
AcDbEntity
  8
___C_____1
  6
CONTINUOUS
100
AcDbVertex
100
AcDb3dPolylineVertex
 10
9.764263
 20
14.56858
 30
0.0
 70
    32
  0
VERTEX
  5
25A
100
AcDbEntity
  8
___C_____1
  6
CONTINUOUS
100
AcDbVertex
100
AcDb3dPolylineVertex
 10
9.762821
 20
14.568092
 30
0.0
 70
    32
  0
VERTEX
  5
25B
100
AcDbEntity
  8
___C_____1
  6
CONTINUOUS
100
AcDbVertex
100
AcDb3dPolylineVertex
 10
9.761417
 20
14.567642
 30
0.0
 70
    32
  0
VERTEX
  5
25C
100
AcDbEntity
  8
___C_____1
  6
CONTINUOUS
100
AcDbVertex
100
AcDb3dPolylineVertex
 10
9.760044
 20
14.567201
 30
0.0
 70
    32
  0
VERTEX
  5
25D
100
AcDbEntity
  8
___C_____1
  6
CONTINUOUS
100
AcDbVertex
100
AcDb3dPolylineVertex
 10
9.73399
 20
14.561081
 30
0.0
 70
    32
  0
VERTEX
  5
25E
100
AcDbEntity
  8
___C_____1
  6
CONTINUOUS
100
AcDbVertex
100
AcDb3dPolylineVertex
 10
9.714532
 20
14.558374
 30
0.0
 70
    32
  0
VERTEX
  5
25F
100
AcDbEntity
  8
___C_____1
  6
CONTINUOUS
100
AcDbVertex
100
AcDb3dPolylineVertex
 10
9.706887
 20
14.557764
 30
0.0
 70
    32
  0
VERTEX
  5
260
100
AcDbEntity
  8
___C_____1
  6
CONTINUOUS
100
AcDbVertex
100
AcDb3dPolylineVertex
 10
9.706887
 20
14.504156
 30
0.0
 70
    32
  0
VERTEX
  5
261
100
AcDbEntity
  8
___C_____1
  6
CONTINUOUS
100
AcDbVertex
100
AcDb3dPolylineVertex
 10
9.715775
 20
14.505334
 30
0.0
 70
    32
  0
VERTEX
  5
262
100
AcDbEntity
  8
___C_____1
  6
CONTINUOUS
100
AcDbVertex
100
AcDb3dPolylineVertex
 10
9.737382
 20
14.508985
 30
0.0
 70
    32
  0
VERTEX
  5
263
100
AcDbEntity
  8
___C_____1
  6
CONTINUOUS
100
AcDbVertex
100
AcDb3dPolylineVertex
 10
9.764125
 20
14.515286
 30
0.0
 70
    32
  0
SEQEND
  5
264
100
AcDbEntity
  8
___C_____1
  6
CONTINUOUS
 62
    18
  0
POLYLINE
  5
265
100
AcDbEntity
  8
___C_____1
  6
CONTINUOUS
 62
    18
100
AcDb3dPolyline
 66
     1
 10
0.0
 20
0.0
 30
0.0
 70
     8
  0
VERTEX
  5
266
100
AcDbEntity
  8
___C_____1
  6
CONTINUOUS
100
AcDbVertex
100
AcDb3dPolylineVertex
 10
9.764263
 20
14.699355
 30
0.0
 70
    32
  0
VERTEX
  5
267
100
AcDbEntity
  8
___C_____1
  6
CONTINUOUS
100
AcDbVertex
100
AcDb3dPolylineVertex
 10
9.762821
 20
14.698883
 30
0.0
 70
    32
  0
VERTEX
  5
268
100
AcDbEntity
  8
___C_____1
  6
CONTINUOUS
100
AcDbVertex
100
AcDb3dPolylineVertex
 10
9.761417
 20
14.698418
 30
0.0
 70
    32
  0
VERTEX
  5
269
100
AcDbEntity
  8
___C_____1
  6
CONTINUOUS
100
AcDbVertex
100
AcDb3dPolylineVertex
 10
9.760044
 20
14.697944
 30
0.0
 70
    32
  0
VERTEX
  5
26A
100
AcDbEntity
  8
___C_____1
  6
CONTINUOUS
100
AcDbVertex
100
AcDb3dPolylineVertex
 10
9.73399
 20
14.691862
 30
0.0
 70
    32
  0
VERTEX
  5
26B
100
AcDbEntity
  8
___C_____1
  6
CONTINUOUS
100
AcDbVertex
100
AcDb3dPolylineVertex
 10
9.714532
 20
14.689155
 30
0.0
 70
    32
  0
VERTEX
  5
26C
100
AcDbEntity
  8
___C_____1
  6
CONTINUOUS
100
AcDbVertex
100
AcDb3dPolylineVertex
 10
9.706887
 20
14.688539
 30
0.0
 70
    32
  0
VERTEX
  5
26D
100
AcDbEntity
  8
___C_____1
  6
CONTINUOUS
100
AcDbVertex
100
AcDb3dPolylineVertex
 10
9.706887
 20
14.634966
 30
0.0
 70
    32
  0
VERTEX
  5
26E
100
AcDbEntity
  8
___C_____1
  6
CONTINUOUS
100
AcDbVertex
100
AcDb3dPolylineVertex
 10
9.715795
 20
14.636134
 30
0.0
 70
    32
  0
VERTEX
  5
26F
100
AcDbEntity
  8
___C_____1
  6
CONTINUOUS
100
AcDbVertex
100
AcDb3dPolylineVertex
 10
9.737453
 20
14.639759
 30
0.0
 70
    32
  0
VERTEX
  5
270
100
AcDbEntity
  8
___C_____1
  6
CONTINUOUS
100
AcDbVertex
100
AcDb3dPolylineVertex
 10
9.764263
 20
14.646026
 30
0.0
 70
    32
  0
SEQEND
  5
271
100
AcDbEntity
  8
___C_____1
  6
CONTINUOUS
 62
    18
  0
POLYLINE
  5
272
100
AcDbEntity
  8
___C_____1
  6
CONTINUOUS
 62
    18
100
AcDb3dPolyline
 66
     1
 10
0.0
 20
0.0
 30
0.0
 70
     8
  0
VERTEX
  5
273
100
AcDbEntity
  8
___C_____1
  6
CONTINUOUS
100
AcDbVertex
100
AcDb3dPolylineVertex
 10
9.764263
 20
14.810357
 30
0.0
 70
    32
  0
VERTEX
  5
274
100
AcDbEntity
  8
___C_____1
  6
CONTINUOUS
100
AcDbVertex
100
AcDb3dPolylineVertex
 10
9.762821
 20
14.809856
 30
0.0
 70
    32
  0
VERTEX
  5
275
100
AcDbEntity
  8
___C_____1
  6
CONTINUOUS
100
AcDbVertex
100
AcDb3dPolylineVertex
 10
9.761417
 20
14.8094
 30
0.0
 70
    32
  0
VERTEX
  5
276
100
AcDbEntity
  8
___C_____1
  6
CONTINUOUS
100
AcDbVertex
100
AcDb3dPolylineVertex
 10
9.760044
 20
14.809013
 30
0.0
 70
    32
  0
VERTEX
  5
277
100
AcDbEntity
  8
___C_____1
  6
CONTINUOUS
100
AcDbVertex
100
AcDb3dPolylineVertex
 10
9.73399
 20
14.802888
 30
0.0
 70
    32
  0
VERTEX
  5
278
100
AcDbEntity
  8
___C_____1
  6
CONTINUOUS
100
AcDbVertex
100
AcDb3dPolylineVertex
 10
9.714532
 20
14.800141
 30
0.0
 70
    32
  0
VERTEX
  5
279
100
AcDbEntity
  8
___C_____1
  6
CONTINUOUS
100
AcDbVertex
100
AcDb3dPolylineVertex
 10
9.706887
 20
14.799505
 30
0.0
 70
    32
  0
VERTEX
  5
27A
100
AcDbEntity
  8
___C_____1
  6
CONTINUOUS
100
AcDbVertex
100
AcDb3dPolylineVertex
 10
9.706887
 20
14.745932
 30
0.0
 70
    32
  0
VERTEX
  5
27B
100
AcDbEntity
  8
___C_____1
  6
CONTINUOUS
100
AcDbVertex
100
AcDb3dPolylineVertex
 10
9.715795
 20
14.74712
 30
0.0
 70
    32
  0
VERTEX
  5
27C
100
AcDbEntity
  8
___C_____1
  6
CONTINUOUS
100
AcDbVertex
100
AcDb3dPolylineVertex
 10
9.737453
 20
14.750787
 30
0.0
 70
    32
  0
VERTEX
  5
27D
100
AcDbEntity
  8
___C_____1
  6
CONTINUOUS
100
AcDbVertex
100
AcDb3dPolylineVertex
 10
9.764263
 20
14.757094
 30
0.0
 70
    32
  0
SEQEND
  5
27E
100
AcDbEntity
  8
___C_____1
  6
CONTINUOUS
 62
    18
  0
POLYLINE
  5
27F
100
AcDbEntity
  8
___C_____1
  6
CONTINUOUS
 62
    18
100
AcDb3dPolyline
 66
     1
 10
0.0
 20
0.0
 30
0.0
 70
     8
  0
VERTEX
  5
280
100
AcDbEntity
  8
___C_____1
  6
CONTINUOUS
100
AcDbVertex
100
AcDb3dPolylineVertex
 10
9.801918
 20
14.447863
 30
0.0
 70
    32
  0
VERTEX
  5
281
100
AcDbEntity
  8
___C_____1
  6
CONTINUOUS
100
AcDbVertex
100
AcDb3dPolylineVertex
 10
9.801918
 20
14.394188
 30
0.0
 70
    32
  0
SEQEND
  5
282
100
AcDbEntity
  8
___C_____1
  6
CONTINUOUS
 62
    18
  0
POLYLINE
  5
283
100
AcDbEntity
  8
___C_____1
  6
CONTINUOUS
 62
    18
100
AcDb3dPolyline
 66
     1
 10
0.0
 20
0.0
 30
0.0
 70
     8
  0
VERTEX
  5
284
100
AcDbEntity
  8
___C_____1
  6
CONTINUOUS
100
AcDbVertex
100
AcDb3dPolylineVertex
 10
9.801918
 20
14.31919
 30
0.0
 70
    32
  0
VERTEX
  5
285
100
AcDbEntity
  8
___C_____1
  6
CONTINUOUS
100
AcDbVertex
100
AcDb3dPolylineVertex
 10
9.801918
 20
14.26379
 30
0.0
 70
    32
  0
SEQEND
  5
286
100
AcDbEntity
  8
___C_____1
  6
CONTINUOUS
 62
    18
  0
POLYLINE
  5
287
100
AcDbEntity
  8
___C_____1
  6
CONTINUOUS
 62
    18
100
AcDb3dPolyline
 66
     1
 10
0.0
 20
0.0
 30
0.0
 70
     8
  0
VERTEX
  5
288
100
AcDbEntity
  8
___C_____1
  6
CONTINUOUS
100
AcDbVertex
100
AcDb3dPolylineVertex
 10
9.505211
 20
14.809634
 30
0.0
 70
    32
  0
VERTEX
  5
289
100
AcDbEntity
  8
___C_____1
  6
CONTINUOUS
100
AcDbVertex
100
AcDb3dPolylineVertex
 10
9.505211
 20
14.759783
 30
0.0
 70
    32
  0
SEQEND
  5
28A
100
AcDbEntity
  8
___C_____1
  6
CONTINUOUS
 62
    18
  0
POLYLINE
  5
28B
100
AcDbEntity
  8
___C_____1
  6
CONTINUOUS
 62
    18
100
AcDb3dPolyline
 66
     1
 10
0.0
 20
0.0
 30
0.0
 70
     8
  0
VERTEX
  5
28C
100
AcDbEntity
  8
___C_____1
  6
CONTINUOUS
100
AcDbVertex
100
AcDb3dPolylineVertex
 10
9.505211
 20
14.690709
 30
0.0
 70
    32
  0
VERTEX
  5
28D
100
AcDbEntity
  8
___C_____1
  6
CONTINUOUS
100
AcDbVertex
100
AcDb3dPolylineVertex
 10
9.505211
 20
14.640893
 30
0.0
 70
    32
  0
SEQEND
  5
28E
100
AcDbEntity
  8
___C_____1
  6
CONTINUOUS
 62
    18
  0
POLYLINE
  5
28F
100
AcDbEntity
  8
___C_____1
  6
CONTINUOUS
 62
    18
100
AcDb3dPolyline
 66
     1
 10
0.0
 20
0.0
 30
0.0
 70
     8
  0
VERTEX
  5
290
100
AcDbEntity
  8
___C_____1
  6
CONTINUOUS
100
AcDbVertex
100
AcDb3dPolylineVertex
 10
9.505211
 20
14.571783
 30
0.0
 70
    32
  0
VERTEX
  5
291
100
AcDbEntity
  8
___C_____1
  6
CONTINUOUS
100
AcDbVertex
100
AcDb3dPolylineVertex
 10
9.505211
 20
14.521968
 30
0.0
 70
    32
  0
SEQEND
  5
292
100
AcDbEntity
  8
___C_____1
  6
CONTINUOUS
 62
    18
  0
POLYLINE
  5
293
100
AcDbEntity
  8
___C_____1
  6
CONTINUOUS
 62
    18
100
AcDb3dPolyline
 66
     1
 10
0.0
 20
0.0
 30
0.0
 70
     8
  0
VERTEX
  5
294
100
AcDbEntity
  8
___C_____1
  6
CONTINUOUS
100
AcDbVertex
100
AcDb3dPolylineVertex
 10
9.505211
 20
14.452893
 30
0.0
 70
    32
  0
VERTEX
  5
295
100
AcDbEntity
  8
___C_____1
  6
CONTINUOUS
100
AcDbVertex
100
AcDb3dPolylineVertex
 10
9.505211
 20
14.403007
 30
0.0
 70
    32
  0
SEQEND
  5
296
100
AcDbEntity
  8
___C_____1
  6
CONTINUOUS
 62
    18
  0
POLYLINE
  5
297
100
AcDbEntity
  8
___C_____1
  6
CONTINUOUS
 62
    18
100
AcDb3dPolyline
 66
     1
 10
0.0
 20
0.0
 30
0.0
 70
     8
  0
VERTEX
  5
298
100
AcDbEntity
  8
___C_____1
  6
CONTINUOUS
100
AcDbVertex
100
AcDb3dPolylineVertex
 10
9.505211
 20
14.282604
 30
0.0
 70
    32
  0
VERTEX
  5
299
100
AcDbEntity
  8
___C_____1
  6
CONTINUOUS
100
AcDbVertex
100
AcDb3dPolylineVertex
 10
9.505211
 20
14.33545
 30
0.0
 70
    32
  0
SEQEND
  5
29A
100
AcDbEntity
  8
___C_____1
  6
CONTINUOUS
 62
    18
  0
POLYLINE
  5
29B
100
AcDbEntity
  8
___C_____1
  6
CONTINUOUS
 62
    18
100
AcDb3dPolyline
 66
     1
 10
0.0
 20
0.0
 30
0.0
 70
     8
  0
VERTEX
  5
29C
100
AcDbEntity
  8
___C_____1
  6
CONTINUOUS
100
AcDbVertex
100
AcDb3dPolylineVertex
 10
11.243713
 20
14.689675
 30
0.0
 70
    32
  0
VERTEX
  5
29D
100
AcDbEntity
  8
___C_____1
  6
CONTINUOUS
100
AcDbVertex
100
AcDb3dPolylineVertex
 10
11.354264
 20
14.675793
 30
0.0
 70
    32
  0
VERTEX
  5
29E
100
AcDbEntity
  8
___C_____1
  6
CONTINUOUS
100
AcDbVertex
100
AcDb3dPolylineVertex
 10
11.462177
 20
14.713609
 30
0.0
 70
    32
  0
VERTEX
  5
29F
100
AcDbEntity
  8
___C_____1
  6
CONTINUOUS
100
AcDbVertex
100
AcDb3dPolylineVertex
 10
11.5389
 20
14.813003
 30
0.0
 70
    32
  0
VERTEX
  5
2A0
100
AcDbEntity
  8
___C_____1
  6
CONTINUOUS
100
AcDbVertex
100
AcDb3dPolylineVertex
 10
11.568104
 20
14.952897
 30
0.0
 70
    32
  0
VERTEX
  5
2A1
100
AcDbEntity
  8
___C_____1
  6
CONTINUOUS
100
AcDbVertex
100
AcDb3dPolylineVertex
 10
11.568104
 20
18.657727
 30
0.0
 70
    32
  0
VERTEX
  5
2A2
100
AcDbEntity
  8
___C_____1
  6
CONTINUOUS
100
AcDbVertex
100
AcDb3dPolylineVertex
 10
11.5389
 20
18.797572
 30
0.0
 70
    32
  0
VERTEX
  5
2A3
100
AcDbEntity
  8
___C_____1
  6
CONTINUOUS
100
AcDbVertex
100
AcDb3dPolylineVertex
 10
11.462177
 20
18.896982
 30
0.0
 70
    32
  0
VERTEX
  5
2A4
100
AcDbEntity
  8
___C_____1
  6
CONTINUOUS
100
AcDbVertex
100
AcDb3dPolylineVertex
 10
11.354264
 20
18.934817
 30
0.0
 70
    32
  0
VERTEX
  5
2A5
100
AcDbEntity
  8
___C_____1
  6
CONTINUOUS
100
AcDbVertex
100
AcDb3dPolylineVertex
 10
11.243713
 20
18.948717
 30
0.0
 70
    32
  0
SEQEND
  5
2A6
100
AcDbEntity
  8
___C_____1
  6
CONTINUOUS
 62
    18
  0
POLYLINE
  5
2A7
100
AcDbEntity
  8
___C_____1
  6
CONTINUOUS
 62
    18
100
AcDb3dPolyline
 66
     1
 10
0.0
 20
0.0
 30
0.0
 70
     8
  0
VERTEX
  5
2A8
100
AcDbEntity
  8
___C_____1
  6
CONTINUOUS
100
AcDbVertex
100
AcDb3dPolylineVertex
 10
11.243713
 20
18.839715
 30
0.0
 70
    32
  0
VERTEX
  5
2A9
100
AcDbEntity
  8
___C_____1
  6
CONTINUOUS
100
AcDbVertex
100
AcDb3dPolylineVertex
 10
11.267621
 20
18.836339
 30
0.0
 70
    32
  0
VERTEX
  5
2AA
100
AcDbEntity
  8
___C_____1
  6
CONTINUOUS
100
AcDbVertex
100
AcDb3dPolylineVertex
 10
11.375486
 20
18.798521
 30
0.0
 70
    32
  0
VERTEX
  5
2AB
100
AcDbEntity
  8
___C_____1
  6
CONTINUOUS
100
AcDbVertex
100
AcDb3dPolylineVertex
 10
11.452232
 20
18.699143
 30
0.0
 70
    32
  0
VERTEX
  5
2AC
100
AcDbEntity
  8
___C_____1
  6
CONTINUOUS
100
AcDbVertex
100
AcDb3dPolylineVertex
 10
11.481458
 20
18.559316
 30
0.0
 70
    32
  0
VERTEX
  5
2AD
100
AcDbEntity
  8
___C_____1
  6
CONTINUOUS
100
AcDbVertex
100
AcDb3dPolylineVertex
 10
11.481458
 20
15.04826
 30
0.0
 70
    32
  0
VERTEX
  5
2AE
100
AcDbEntity
  8
___C_____1
  6
CONTINUOUS
100
AcDbVertex
100
AcDb3dPolylineVertex
 10
11.452232
 20
14.90845
 30
0.0
 70
    32
  0
VERTEX
  5
2AF
100
AcDbEntity
  8
___C_____1
  6
CONTINUOUS
100
AcDbVertex
100
AcDb3dPolylineVertex
 10
11.375486
 20
14.809053
 30
0.0
 70
    32
  0
VERTEX
  5
2B0
100
AcDbEntity
  8
___C_____1
  6
CONTINUOUS
100
AcDbVertex
100
AcDb3dPolylineVertex
 10
11.267621
 20
14.77122
 30
0.0
 70
    32
  0
VERTEX
  5
2B1
100
AcDbEntity
  8
___C_____1
  6
CONTINUOUS
100
AcDbVertex
100
AcDb3dPolylineVertex
 10
11.243713
 20
14.767812
 30
0.0
 70
    32
  0
SEQEND
  5
2B2
100
AcDbEntity
  8
___C_____1
  6
CONTINUOUS
 62
    18
  0
POLYLINE
  5
2B3
100
AcDbEntity
  8
___C_____1
  6
CONTINUOUS
 62
    18
100
AcDb3dPolyline
 66
     1
 10
0.0
 20
0.0
 30
0.0
 70
     8
  0
VERTEX
  5
2B4
100
AcDbEntity
  8
___C_____1
  6
CONTINUOUS
100
AcDbVertex
100
AcDb3dPolylineVertex
 10
11.354264
 20
14.675793
 30
0.0
 70
    32
  0
VERTEX
  5
2B5
100
AcDbEntity
  8
___C_____1
  6
CONTINUOUS
100
AcDbVertex
100
AcDb3dPolylineVertex
 10
11.487695
 20
14.667249
 30
0.0
 70
    32
  0
VERTEX
  5
2B6
100
AcDbEntity
  8
___C_____1
  6
CONTINUOUS
100
AcDbVertex
100
AcDb3dPolylineVertex
 10
11.595664
 20
14.712676
 30
0.0
 70
    32
  0
VERTEX
  5
2B7
100
AcDbEntity
  8
___C_____1
  6
CONTINUOUS
100
AcDbVertex
100
AcDb3dPolylineVertex
 10
11.67242
 20
14.826189
 30
0.0
 70
    32
  0
VERTEX
  5
2B8
100
AcDbEntity
  8
___C_____1
  6
CONTINUOUS
100
AcDbVertex
100
AcDb3dPolylineVertex
 10
11.701634
 20
14.973637
 30
0.0
 70
    32
  0
VERTEX
  5
2B9
100
AcDbEntity
  8
___C_____1
  6
CONTINUOUS
100
AcDbVertex
100
AcDb3dPolylineVertex
 10
11.701634
 20
18.706252
 30
0.0
 70
    32
  0
VERTEX
  5
2BA
100
AcDbEntity
  8
___C_____1
  6
CONTINUOUS
100
AcDbVertex
100
AcDb3dPolylineVertex
 10
11.67242
 20
18.846104
 30
0.0
 70
    32
  0
VERTEX
  5
2BB
100
AcDbEntity
  8
___C_____1
  6
CONTINUOUS
100
AcDbVertex
100
AcDb3dPolylineVertex
 10
11.595664
 20
18.945511
 30
0.0
 70
    32
  0
VERTEX
  5
2BC
100
AcDbEntity
  8
___C_____1
  6
CONTINUOUS
100
AcDbVertex
100
AcDb3dPolylineVertex
 10
11.487695
 20
18.983342
 30
0.0
 70
    32
  0
VERTEX
  5
2BD
100
AcDbEntity
  8
___C_____1
  6
CONTINUOUS
100
AcDbVertex
100
AcDb3dPolylineVertex
 10
11.243713
 20
19.013967
 30
0.0
 70
    32
  0
SEQEND
  5
2BE
100
AcDbEntity
  8
___C_____1
  6
CONTINUOUS
 62
    18
  0
POLYLINE
  5
2BF
100
AcDbEntity
  8
___C_____1
  6
CONTINUOUS
 62
    18
100
AcDb3dPolyline
 66
     1
 10
0.0
 20
0.0
 30
0.0
 70
     8
  0
VERTEX
  5
2C0
100
AcDbEntity
  8
___C_____1
  6
CONTINUOUS
100
AcDbVertex
100
AcDb3dPolylineVertex
 10
11.675451
 20
14.83406
 30
0.0
 70
    32
  0
VERTEX
  5
2C1
100
AcDbEntity
  8
___C_____1
  6
CONTINUOUS
100
AcDbVertex
100
AcDb3dPolylineVertex
 10
11.730838
 20
14.89335
 30
0.0
 70
    32
  0
VERTEX
  5
2C2
100
AcDbEntity
  8
___C_____1
  6
CONTINUOUS
100
AcDbVertex
100
AcDb3dPolylineVertex
 10
11.76599
 20
14.973192
 30
0.0
 70
    32
  0
VERTEX
  5
2C3
100
AcDbEntity
  8
___C_____1
  6
CONTINUOUS
100
AcDbVertex
100
AcDb3dPolylineVertex
 10
11.778289
 20
15.069586
 30
0.0
 70
    32
  0
VERTEX
  5
2C4
100
AcDbEntity
  8
___C_____1
  6
CONTINUOUS
100
AcDbVertex
100
AcDb3dPolylineVertex
 10
11.778289
 20
18.608239
 30
0.0
 70
    32
  0
VERTEX
  5
2C5
100
AcDbEntity
  8
___C_____1
  6
CONTINUOUS
100
AcDbVertex
100
AcDb3dPolylineVertex
 10
11.764782
 20
18.705327
 30
0.0
 70
    32
  0
VERTEX
  5
2C6
100
AcDbEntity
  8
___C_____1
  6
CONTINUOUS
100
AcDbVertex
100
AcDb3dPolylineVertex
 10
11.727556
 20
18.787418
 30
0.0
 70
    32
  0
VERTEX
  5
2C7
100
AcDbEntity
  8
___C_____1
  6
CONTINUOUS
100
AcDbVertex
100
AcDb3dPolylineVertex
 10
11.67156
 20
18.848171
 30
0.0
 70
    32
  0
SEQEND
  5
2C8
100
AcDbEntity
  8
___C_____1
  6
CONTINUOUS
 62
    18
  0
POLYLINE
  5
2C9
100
AcDbEntity
  8
___C_____1
  6
CONTINUOUS
 62
    18
100
AcDb3dPolyline
 66
     1
 10
0.0
 20
0.0
 30
0.0
 70
     8
  0
VERTEX
  5
2CA
100
AcDbEntity
  8
___C_____1
  6
CONTINUOUS
100
AcDbVertex
100
AcDb3dPolylineVertex
 10
11.323329
 20
18.676901
 30
0.0
 70
    32
  0
VERTEX
  5
2CB
100
AcDbEntity
  8
___C_____1
  6
CONTINUOUS
100
AcDbVertex
100
AcDb3dPolylineVertex
 10
11.243713
 20
18.654386
 30
0.0
 70
    32
  0
SEQEND
  5
2CC
100
AcDbEntity
  8
___C_____1
  6
CONTINUOUS
 62
    18
  0
ENDSEC
  0
SECTION
  2
OBJECTS
  0
DICTIONARY
  5
19
100
AcDbDictionary
  3
ACAD_GROUP
350
1A
  3
ACAD_MLINESTYLE
350
1B
  0
DICTIONARY
  5
1A
102
{ACAD_REACTORS
330
19
102
}
100
AcDbDictionary
  0
DICTIONARY
  5
1B
102
{ACAD_REACTORS
330
19
102
}
100
AcDbDictionary
  3
STANDARD
350
1C
  0
MLINESTYLE
  5
1C
102
{ACAD_REACTORS
330
1B
102
}
100
AcDbMlineStyle
  2
STANDARD
 70
     0
  3

 62
     0
 51
90.0
 52
90.0
 71
     2
 49
0.5
 62
   256
  6
BYLAYER
 49
-0.5
 62
   256
  6
BYLAYER
  0
DICTIONARY
  5
22
102
{ACAD_REACTORS
330
19
102
}
100
AcDbDictionary
  0
ENDSEC
  0
EOF
